Oops, an error
Loading. Please wait.

Rollin On tab

version 2
version 2

Whole song

Interactive

2,435 views 1 this week
1 commentread comment
1 2 3 4 5
2 more votes to show rating
add to favorites
×
Save as Personal and add changes to this tab that will be seen only by you. Learn more ›
×
You can save this tab as Personal to edit and correct it or add notes. All changes will be seen only by you. Learn more »
launch autoscroll
font size
0
reset
how to read this tab
guitar tuner
backing track
0:00
0:00
edit
Autoscroll
slow
fast
+/-
esc
set tempo
stop
Author
Artist: Black Stone Cherry
Song:   Rollin On'
Album:  Black Stone Cherry
Tuning: Drop C# (C# G# C# F# A# D#) aka Drop Db

##########################
gb      gradual bend
h       hammer on
p       pull off
x       mute the string
/or\    slide
##########################

(Taken from the guitar pro file, I take no credit)

Intro:
||-------|-------|-------|-------|--------------------------|
||-------|-------|-------|-------|--------------------------|
||-------|-------|-------|-------|--------x-----------x--x--|
||-------|-------|-------|-------|--------x-----------x--x--|
||-------|-------|-------|-------|--------x-----------x--x--|
||-------|-------|-------|-------|--------------------------|


|--------------------------|--------------------------|
|--------------------------|--------------------------|
|--------x-----------x--x--|--------x-----------x--x--|
|--------x-----------x--x--|--------x-----------x--x--|
|--------x-----------x--x--|--------x-----------x--x--|
|--------------------------|--------------------------|


|----------------------------|---------------------|---------------------|
|----------------------------|--7------5-----------|---------------------|
|--------x-------------------|---------------------|--6------4--------2--|
|--------x-------------------|---------------------|---------------------|
|--------x-----------/12\----|---------------------|---------------------|
|--------------------/12\----|---------------------|---------------------|
|
|----------------------------|---------------------|---------------------|
|----------------------------|---------------------|---------------------|
|--------x-------------------|--4------2-----------|---------------------|
|--------x-------------------|---------------------|--4------2--------0--|
|--------x-----------/12\----|---------------------|---------------------|
|--------------------/12\----|---------------------|---------------------|


|----------------------|-------------------|---------------------|
|----------------------|-------------------|--7------5-----------|
|--4------2-----2------|-------------------|---------------------|
|----------------------|-------------------|---------------------|
|----------------------|-------------------|---------------------|
|----------------------|-------------------|---------------------|
|
|----------------------|-------------------|---------------------|
|----------------------|-------------------|---------------------|
|----------------------|-------------------|--4------2-----------|
|--2------0-----0------|-------------------|---------------------|
|----------------------|-------------------|---------------------|
|----------------------|-------------------|---------------------|


|-----------------------|---------------------|---------------------------|
|-----------------------|---------------------|---------5--7--5------7----|
|--6------4----2--4-----|--2---------------2--|--2gb6---------------------|
|-----------------------|---------------------|---------------------------|
|-----------------------|---------------------|---------------------------|
|-----------------------|---------------------|---------------------------|
|
|-----------------------|---------------------|---------------------------|
|-----------------------|---------------------|---------------------------|
|-----------------------|---------------------|---------2--4--2-----------|
|--4------2----0--2-----|--0---------------0--|--0gb4----------------4----|
|-----------------------|---------------------|---------------------------|
|-----------------------|---------------------|---------------------------|

                       Verse:
|---------------------|--------------------------|--------------------------|
|--5------------------|--------------------------|--------------------------|
|------------------0--|--------------------------|--------------------------|
|------------------0--|--5--5--5--5--5--5--5--5--|--7--7--7--7--7--7--7--7--|
|------------------0--|--5--5--5--5--5--5--5--5--|--5--5--5--5--5--5--5--5--|
|---------------------|--5--5--5--5--5--5--5--5--|--------------------------|
|
|---------------------|--------------------------|--------------------------|
|---------------------|--------------------------|--------------------------|
|------------------0--|--------------------------|--------------------------|
|--2---------------0--|--5--5--5--5--5--5--5--5--|--7--7--7--7--7--7--7--7--|
|------------------0--|--5--5--5--5--5--5--5--5--|--5--5--5--5--5--5--5--5--|
|---------------------|--5--5--5--5--5--5--5--5--|--------------------------|


|--------------------------|--------------------------|
|--------------------------|--------------------------|
|--------------------------|--2--2--2--2--2--2--2--2--|
|--7--7--7--7--7--7--7--7--|--2--2--2--2--2--2--2--2--|
|--5--5--5--5--5--5--5--5--|--0--0--0--0--0--0--0--0--|
|--------------------------|--------------------------|
|
|--------------------------|--------------------------|
|--------------------------|--------------------------|
|--------------------------|--2--2--2--2--2--2--2--2--|
|--7--7--7--7--7--7--7--7--|--2--2--2--2--2--2--2--2--|
|--5--5--5--5--5--5--5--5--|--0--0--0--0--0--0--0--0--|
|--------------------------|--------------------------|


|--------------------------|--------------------------|
|--------------------------|--------------------------|
|--------------------------|--------------------------|
|--5--5--5--5--5--5--5--5--|--7--7--5--x--5--4--------|
|--5--5--5--5--5--5--5--5--|--5--5--------------5--5--|
|--5--5--5--5--5--5--5--5--|--------------------------|
|
|--------------------------|--------------------------|
|--------------------------|--------------------------|
|--------------------------|--------------------------|
|--5--5--5--5--5--5--5--5--|--7--7--7--7--7--7--7--7--|
|--5--5--5--5--5--5--5--5--|--5--5--5--5--5--5--5--5--|
|--5--5--5--5--5--5--5--5--|--------------------------|


|---------------------------|--------------------------|
|---------------------------|--------------------------|
|---------------------------|--2--2--2--2--2--2--2--2--|
|--5--x--5--4---------------|--2--2--2--2--2--2--2--2--|
|--------------7--5---------|--0--0--0--0--0--0--0--0--|
|--------------------10--9--|--------------------------|
|
|---------------------------|--------------------------|
|---------------------------|--------------------------|
|---------------------------|--2--2--2--2--2--2--2--2--|
|--7--7--7--5--5--5--5--5---|--2--2--2--2--2--2--2--2--|
|--5--5--5--5--5--5--5--5---|--0--0--0--0--0--0--0--0--|
|--------------5--5--5--5---|--------------------------|


|--------------------------|--------------------------|
|--------------------------|--------------------------|
|--------------------------|--------------7--------7--|
|--5--5--5--5--5--5--5--5--|--7--7--7--7--7--7--7--7--|
|--5--5--5--5--5--5--5--5--|--5--5--5--5--5--5--5--5--|
|--5--5--5--5--5--5--5--5--|--------------------------|
|
|--------------------------|--------------------------|
|--------------------------|--------------------------|
|--------------------------|--------------7--------7--|
|--5--5--5--5--5--5--5--5--|--7--7--7--7--7--7--7--7--|
|--5--5--5--5--5--5--5--5--|--5--5--5--5--5--5--5--5--|
|--5--5--5--5--5--5--5--5--|--------------------------|


|--------------------------|--------------------------|
|--------------------------|--------------------------|
|--------7-----------------|--2--2--2--2--2--2--2--2--|
|--7--7--7--5--5--5--5--5--|--2--2--2--2--2--2--2--2--|
|--5--5--5--5--5--5--5--5--|--0--0--0--0--0--0--0--0--|
|--------------5--5--5--5--|--------------------------|
|
|--------------------------|--------------------------|
|--------------------------|--------------------------|
|--------7-----------------|--2--2--2--2--2--2--2--2--|
|--7--7--7--5--5--5--5--5--|--2--2--2--2--2--2--2--2--|
|--5--5--5--5--5--5--5--5--|--0--0--0--0--0--0--0--0--|
|--------------5--5--5--5--|--------------------------|


|--------------------------|--------------------------|
|--------------------------|--------------------------|
|--------------------------|--------------------------|
|--5--5--5--5--5--5--5--5--|--7--7--7--7--7--7--7--7--|
|--5--5--5--5--5--5--5--5--|--5--5--5--5--5--5--5--5--|
|--5--5--5--5--5--5--5--5--|--------0--0--0--0--0--0--|
|
|--------------------------|--------------------------|
|--------------------------|--------------------------|
|--------------------------|--------------------------|
|--5--5--5--5--5--5--5--5--|--7--7--7--7--7--7--7--7--|
|--5--5--5--5--5--5--5--5--|--5--5--5--5--5--5--5--5--|
|--5--5--5--5--5--5--5--5--|--------0--0--0--0--0--0--|

                            Chorus:
|--------------------------|--------------------------|
|--------------------------|--------------------------|
|--------------------------|--2--2--2--2--2--2--2--2--|
|--7--7--7--7--7--7--7--7--|--2--2--2--2--2--2--2--2--|
|--5--5--5--5--5--5--5--5--|--0--0--0--0--0--0--0--0--|
|--0--0--0--0--0--0--0--0--|--------------------------|
|
|--------------------------|--------------------------|
|--------------------------|--------------------------|
|--------------------------|--2--2--2--2--2--2--2--2--|
|--7--7--7--7--7--7--7--7--|--2--2--2--2--2--2--2--2--|
|--5--5--5--5--5--5--5--5--|--0--0--0--0--0--0--0--0--|
|--0--0--0--0--0--0--0--0--|--------------------------|


|--------------------------|--------------------------|
|--------------------------|--------------------------|
|--------------------------|-----------------------7--|
|--2--2--2--2--2--2--2--2--|--4--4--4--4--4--4--4--7--|
|--2--2--2--2--2--2--2--2--|--4--4--4--4--4--4--4--5--|
|--2--2--2--2--2--2--2--2--|--4--4--4--4--4--4--4-----|
|
|--------------------------|--------------------------|
|--------------------------|--------------------------|
|--------------------------|-----------------------7--|
|--2--2--2--2--2--2--2--2--|--4--4--4--4--4--4--4--7--|
|--2--2--2--2--2--2--2--2--|--4--4--4--4--4--4--4--5--|
|--2--2--2--2--2--2--2--2--|--4--4--4--4--4--4--4-----|


|----------------------------|--------------------------|
|----------------------------|--------------------------|
|--7--7--7--7--7-------------|--2--2--2--2--2--2--2--2--|
|--7--7--7--7--7--7br--7--5--|--2--2--2--2--2--2--2--2--|
|--5--5--5--5--5-------------|--0--0--0--0--0--0--0--0--|
|----------------------------|--------------------------|
|
|----------------------------|--------------------------|
|----------------------------|--------------------------|
|--7--7--7--7--7--7----7--7--|--2--2--2--2--2--2--2--2--|
|--7--7--7--7--7--7----7--7--|--2--2--2--2--2--2--2--2--|
|--5--5--5--5--5--5----5--5--|--0--0--0--0--0--0--0--0--|
|----------------------------|--------------------------|


|--------------------------|----------------------------|
|--------------------------|----------------------------|
|--------------------------|--7--7--7--7S--9--9--9--9S--|
|--2--2--2--2--2--2--2--2--|--x--x--x--x---x--x--x--x---|
|--2--2--2--2--2--2--2--2--|--5--5--5--5S--7--7--7--7S--|
|--2--2--2--2--2--2--2--2--|----------------------------|
|
|--------------------------|----------------------------|
|--------------------------|----------------------------|
|--------------------------|--7--7--7--7---7--7--7--7---|
|--2--2--2--2--2--2--2--2--|--7--7--7--7---7--7--7--7---|
|--2--2--2--2--2--2--2--2--|--5--5--5--5---5--5--5--5---|
|--2--2--2--2--2--2--2--2--|----------------------------|


|-----------------------------------|--------------------------|
|-----------------------------------|--------------------------|
|--11--11--11--11S--14--14--14--14--|--2--2--2--2--2--2--2--2--|
|---x---x---x---x----x---x---x---x--|--2--2--2--2--2--2--2--2--|
|---9---9---9---9S--12--12--12--12--|--0--0--0--0--0--0--0--0--|
|-----------------------------------|--------------------------|
|
|-----------------------------------|--------------------------|
|-----------------------------------|--------------------------|
|--7----7---7---7----7---7---7---7--|--2--2--2--2--2--2--2--2--|
|--7----7---7---7----7---7---7---7--|--2--2--2--2--2--2--2--2--|
|--5----5---5---5----5---5---5---5--|--0--0--0--0--0--0--0--0--|
|-----------------------------------|--------------------------|


|--------------------------|--------------------------|
|--------------------------|--------------------------|
|--------------------------|-----------------------7--|
|--2--2--2--2--2--2--2--2--|--4--4--4--4--4--4--4--x--|
|--2--2--2--2--2--2--2--2--|--4--4--4--4--4--4--4--5--|
|--2--2--2--2--2--2--2--2--|--4--4--4--4--4--4--4-----|
|
|--------------------------|--------------------------|
|--------------------------|--------------------------|
|--------------------------|--------------------------|
|--2--2--2--2--2--2--2--2--|--4--4--4--4--4--4--4--4--|
|--2--2--2--2--2--2--2--2--|--4--4--4--4--4--4--4--4--|
|--2--2--2--2--2--2--2--2--|--4--4--4--4--4--4--4--4--|


|-----------------------------|--------------------------|
|-----------------------------|--------------------------|
|-----7-----6S--7S--6S--4-----|--2--2--2--2--2--2--2--2--|
|-----x-----x---x---x---x-----|--2--2--2--2--2--2--2--2--|
|-----5-----4S--5S--4S--2-----|--0--0--0--0--0--0--0--0--|
|-----------------------------|--------------------------|
|
|-----------------------------|--------------------------|
|-----------------------------|--------------------------|
|--7--7--7--7---7---7---7--7--|--2--2--2--2--2--2--2--2--|
|--7--7--7--7---7---7---7--7--|--2--2--2--2--2--2--2--2--|
|--5--5--5--5---5---5---5--5--|--0--0--0--0--0--0--0--0--|
|-----------------------------|--------------------------|


|--------------------------|----------------------------|
|--------------------------|----------------------------|
|--------------------------|--7--7--7--7S--9--9--9--9S--|
|--2--2--2--2--2--2--2--2--|--x--x--x--x---x--x--x--x---|
|--2--2--2--2--2--2--2--2--|--5--5--5--5S--7--7--7--7S--|
|--2--2--2--2--2--2--2--2--|----------------------------|
|
|--------------------------|----------------------------|
|--------------------------|----------------------------|
|--------------------------|--7--7--7--7---7--7--7--7---|
|--2--2--2--2--2--2--2--2--|--7--7--7--7---7--7--7--7---|
|--2--2--2--2--2--2--2--2--|--5--5--5--5---5--5--5--5---|
|--2--2--2--2--2--2--2--2--|----------------------------|


                                      Pre Verse:
|-----------------------------------|---------------------|---------------------|
|-----------------------------------|--7------5-----------|---------------------|
|--11--11--11--11S--14--14--14--14--|---------------------|--6------4--------2--|
|---x---x---x---x----x---x---x---x--|---------------------|---------------------|
|---9---9---9---9S--12--12--12--12--|---------------------|---------------------|
|-----------------------------------|---------------------|---------------------|
|
|-----------------------------------|---------------------|---------------------|
|-----------------------------------|---------------------|---------------------|
|---7---7---7---7----7---7---7---7--|--4------2-----------|---------------------|
|---7---7---7---7----7---7---7---7--|---------------------|--4------2--------0--|
|---5---5---5---5----5---5---5---5--|---------------------|---------------------|
|-----------------------------------|---------------------|---------------------|


|----------------------|-------------------|---------------------|
|----------------------|-------------------|--7------5-----------|
|--4------2-----2------|-------------------|---------------------|
|----------------------|-------------------|---------------------|
|----------------------|-------------------|---------------------|
|----------------------|-------------------|---------------------|
|
|----------------------|-------------------|---------------------|
|----------------------|-------------------|---------------------|
|----------------------|-------------------|--4------2-----------|
|--2------0-----0------|-------------------|---------------------|
|----------------------|-------------------|---------------------|
|----------------------|-------------------|---------------------|


|-----------------------|---------------------|---------------------------|
|-----------------------|---------------------|---------5--7--5------7----|
|--6------4----2--4-----|--2---------------2--|--2gb6---------------------|
|-----------------------|---------------------|---------------------------|
|-----------------------|---------------------|---------------------------|
|-----------------------|---------------------|---------------------------|
|
|-----------------------|---------------------|---------------------------|
|-----------------------|---------------------|---------------------------|
|-----------------------|---------------------|---------2--4--2-----------|
|--4------2----0--2-----|--0---------------0--|--0gb4----------------4----|
|-----------------------|---------------------|---------------------------|
|-----------------------|---------------------|---------------------------|

                        Verse:
|---------------------|--------------------------|--------------------------|
|--5------------------|--------------------------|--------------------------|
|------------------0--|--------------------------|--------------------------|
|------------------0--|--5--5--5--5--5--5--5--5--|--7--7--7--7--7--7--7--7--|
|------------------0--|--5--5--5--5--5--5--5--5--|--5--5--5--5--5--5--5--5--|
|---------------------|--5--5--5--5--5--5--5--5--|--------------------------|
|
|---------------------|--------------------------|--------------------------|
|---------------------|--------------------------|--------------------------|
|------------------0--|--------------------------|--------------------------|
|--2---------------0--|--5--5--5--5--5--5--5--5--|--7--7--7--7--7--7--7--7--|
|------------------0--|--5--5--5--5--5--5--5--5--|--5--5--5--5--5--5--5--5--|
|---------------------|--5--5--5--5--5--5--5--5--|--------------------------|



|--------------------------|--------------------------|
|--------------------------|--------------------------|
|--------------------------|--2--2--2--2--2--2--2--2--|
|--7--7--7--7--7--7--7--7--|--2--2--2--2--2--2--2--2--|
|--5--5--5--5--5--5--5--5--|--0--0--0--0--0--0--0--0--|
|--------------------------|--------------------------|
|
|--------------------------|--------------------------|
|--------------------------|--------------------------|
|--------------------------|--2--2--2--2--2--2--2--2--|
|--7--7--7--7--7--7--7--7--|--2--2--2--2--2--2--2--2--|
|--5--5--5--5--5--5--5--5--|--0--0--0--0--0--0--0--0--|
|--------------------------|--------------------------|


|--------------------------|--------------------------|
|--------------------------|--------------------------|
|--------------------------|--------------------------|
|--5--5--5--5--5--5--5--5--|--7--7--5--x--5--4--------|
|--5--5--5--5--5--5--5--5--|--5--5--------------5--5--|
|--5--5--5--5--5--5--5--5--|--------------------------|
|
|--------------------------|--------------------------|
|--------------------------|--------------------------|
|--------------------------|--------------------------|
|--5--5--5--5--5--5--5--5--|--7--7--7--7--7--7--7--7--|
|--5--5--5--5--5--5--5--5--|--5--5--5--5--5--5--5--5--|
|--5--5--5--5--5--5--5--5--|--------------------------|


|---------------------------|--------------------------|
|---------------------------|--------------------------|
|---------------------------|--2--2--2--2--2--2--2--2--|
|--5--x--5--4---------------|--2--2--2--2--2--2--2--2--|
|--------------7--5---------|--0--0--0--0--0--0--0--0--|
|--------------------10--9--|--------------------------|
|
|---------------------------|--------------------------|
|---------------------------|--------------------------|
|---------------------------|--2--2--2--2--2--2--2--2--|
|--7--7--7--5--5--5--5--5---|--2--2--2--2--2--2--2--2--|
|--5--5--5--5--5--5--5--5---|--0--0--0--0--0--0--0--0--|
|--------------5--5--5--5---|--------------------------|


|--------------------------|--------------------------|
|--------------------------|--------------------------|
|--------------------------|--------------7--------7--|
|--5--5--5--5--5--5--5--5--|--7--7--7--7--7--7--7--7--|
|--5--5--5--5--5--5--5--5--|--5--5--5--5--5--5--5--5--|
|--5--5--5--5--5--5--5--5--|--------------------------|
|
|--------------------------|--------------------------|
|--------------------------|--------------------------|
|--------------------------|--------------7--------7--|
|--5--5--5--5--5--5--5--5--|--7--7--7--7--7--7--7--7--|
|--5--5--5--5--5--5--5--5--|--5--5--5--5--5--5--5--5--|
|--5--5--5--5--5--5--5--5--|--------------------------|


|--------------------------|--------------------------|
|--------------------------|--------------------------|
|--------7-----------------|--2--2--2--2--2--2--2--2--|
|--7--7--7--5--5--5--5--5--|--2--2--2--2--2--2--2--2--|
|--5--5--5--5--5--5--5--5--|--0--0--0--0--0--0--0--0--|
|--------------5--5--5--5--|--------------------------|
|
|--------------------------|--------------------------|
|--------------------------|--------------------------|
|--------7-----------------|--2--2--2--2--2--2--2--2--|
|--7--7--7--5--5--5--5--5--|--2--2--2--2--2--2--2--2--|
|--5--5--5--5--5--5--5--5--|--0--0--0--0--0--0--0--0--|
|--------------5--5--5--5--|--------------------------|


|--------------------------|--------------------------|
|--------------------------|--------------------------|
|--------------------------|--------------------------|
|--5--5--5--5--5--5--5--5--|--7--7--7--7--7--7--7--7--|
|--5--5--5--5--5--5--5--5--|--5--5--5--5--5--5--5--5--|
|--5--5--5--5--5--5--5--5--|--------0--0--0--0--0--0--|
|
|--------------------------|--------------------------|
|--------------------------|--------------------------|
|--------------------------|--------------------------|
|--5--5--5--5--5--5--5--5--|--7--7--7--7--7--7--7--7--|
|--5--5--5--5--5--5--5--5--|--5--5--5--5--5--5--5--5--|
|--5--5--5--5--5--5--5--5--|--------0--0--0--0--0--0--|


                            Chorus:
|--------------------------|--------------------------|
|--------------------------|--------------------------|
|--------------------------|--2--2--2--2--2--2--2--2--|
|--7--7--7--7--7--7--7--7--|--2--2--2--2--2--2--2--2--|
|--5--5--5--5--5--5--5--5--|--0--0--0--0--0--0--0--0--|
|--0--0--0--0--0--0--0--0--|--------------------------|
|
|--------------------------|--------------------------|
|--------------------------|--------------------------|
|--------------------------|--2--2--2--2--2--2--2--2--|
|--7--7--7--7--7--7--7--7--|--2--2--2--2--2--2--2--2--|
|--5--5--5--5--5--5--5--5--|--0--0--0--0--0--0--0--0--|
|--0--0--0--0--0--0--0--0--|--------------------------|


|--------------------------|--------------------------|
|--------------------------|--------------------------|
|--------------------------|-----------------------7--|
|--2--2--2--2--2--2--2--2--|--4--4--4--4--4--4--4--7--|
|--2--2--2--2--2--2--2--2--|--4--4--4--4--4--4--4--5--|
|--2--2--2--2--2--2--2--2--|--4--4--4--4--4--4--4-----|
|
|--------------------------|--------------------------|
|--------------------------|--------------------------|
|--------------------------|-----------------------7--|
|--2--2--2--2--2--2--2--2--|--4--4--4--4--4--4--4--7--|
|--2--2--2--2--2--2--2--2--|--4--4--4--4--4--4--4--5--|
|--2--2--2--2--2--2--2--2--|--4--4--4--4--4--4--4-----|


|----------------------------|--------------------------|
|----------------------------|--------------------------|
|--7--7--7--7--7-------------|--2--2--2--2--2--2--2--2--|
|--7--7--7--7--7--7br--7--5--|--2--2--2--2--2--2--2--2--|
|--5--5--5--5--5-------------|--0--0--0--0--0--0--0--0--|
|----------------------------|--------------------------|
|
|----------------------------|--------------------------|
|----------------------------|--------------------------|
|--7--7--7--7--7--7----7--7--|--2--2--2--2--2--2--2--2--|
|--7--7--7--7--7--7----7--7--|--2--2--2--2--2--2--2--2--|
|--5--5--5--5--5--5----5--5--|--0--0--0--0--0--0--0--0--|
|----------------------------|--------------------------|


|--------------------------|----------------------------|
|--------------------------|----------------------------|
|--------------------------|--7--7--7--7S--9--9--9--9S--|
|--2--2--2--2--2--2--2--2--|--x--x--x--x---x--x--x--x---|
|--2--2--2--2--2--2--2--2--|--5--5--5--5S--7--7--7--7S--|
|--2--2--2--2--2--2--2--2--|----------------------------|
|
|--------------------------|----------------------------|
|--------------------------|----------------------------|
|--------------------------|--7--7--7--7---7--7--7--7---|
|--2--2--2--2--2--2--2--2--|--7--7--7--7---7--7--7--7---|
|--2--2--2--2--2--2--2--2--|--5--5--5--5---5--5--5--5---|
|--2--2--2--2--2--2--2--2--|----------------------------|


|-----------------------------------|--------------------------|
|-----------------------------------|--------------------------|
|--11--11--11--11S--14--14--14--14--|--2--2--2--2--2--2--2--2--|
|---x---x---x---x----x---x---x---x--|--2--2--2--2--2--2--2--2--|
|---9---9---9---9S--12--12--12--12--|--0--0--0--0--0--0--0--0--|
|-----------------------------------|--------------------------|
|
|-----------------------------------|--------------------------|
|-----------------------------------|--------------------------|
|--7----7---7---7----7---7---7---7--|--2--2--2--2--2--2--2--2--|
|--7----7---7---7----7---7---7---7--|--2--2--2--2--2--2--2--2--|
|--5----5---5---5----5---5---5---5--|--0--0--0--0--0--0--0--0--|
|-----------------------------------|--------------------------|


|--------------------------|--------------------------|
|--------------------------|--------------------------|
|--------------------------|-----------------------7--|
|--2--2--2--2--2--2--2--2--|--4--4--4--4--4--4--4--x--|
|--2--2--2--2--2--2--2--2--|--4--4--4--4--4--4--4--5--|
|--2--2--2--2--2--2--2--2--|--4--4--4--4--4--4--4-----|
|
|--------------------------|--------------------------|
|--------------------------|--------------------------|
|--------------------------|--------------------------|
|--2--2--2--2--2--2--2--2--|--4--4--4--4--4--4--4--4--|
|--2--2--2--2--2--2--2--2--|--4--4--4--4--4--4--4--4--|
|--2--2--2--2--2--2--2--2--|--4--4--4--4--4--4--4--4--|


|-----------------------------|--------------------------|
|-----------------------------|--------------------------|
|-----7-----6S--7S--6S--4-----|--2--2--2--2--2--2--2--2--|
|-----x-----x---x---x---x-----|--2--2--2--2--2--2--2--2--|
|-----5-----4S--5S--4S--2-----|--0--0--0--0--0--0--0--0--|
|-----------------------------|--------------------------|
|
|-----------------------------|--------------------------|
|-----------------------------|--------------------------|
|--7--7--7--7---7---7---7--7--|--2--2--2--2--2--2--2--2--|
|--7--7--7--7---7---7---7--7--|--2--2--2--2--2--2--2--2--|
|--5--5--5--5---5---5---5--5--|--0--0--0--0--0--0--0--0--|
|-----------------------------|--------------------------|


|--------------------------|----------------------------|
|--------------------------|----------------------------|
|--------------------------|--7--7--7--7S--9--9--9--9S--|
|--2--2--2--2--2--2--2--2--|--x--x--x--x---x--x--x--x---|
|--2--2--2--2--2--2--2--2--|--5--5--5--5S--7--7--7--7S--|
|--2--2--2--2--2--2--2--2--|----------------------------|
|
|--------------------------|----------------------------|
|--------------------------|----------------------------|
|--------------------------|--7--7--7--7---7--7--7--7---|
|--2--2--2--2--2--2--2--2--|--7--7--7--7---7--7--7--7---|
|--2--2--2--2--2--2--2--2--|--5--5--5--5---5--5--5--5---|
|--2--2--2--2--2--2--2--2--|----------------------------|


                              Solo:
|-----------------------------|-----------------------------------------|
|-----------------------------|-----------------------------------------|
|-----7-----6S--7S--6S--4-----|--2---2----2----2----2----2----2----2----|
|-----------------------------|--2---2----2----2----2----2----2----2----|
|-----5-----4S--5S--4S--2-----|--0---0----0----0----0----0----0----0----|
|-----------------------------|-----------------------------------------|
|
|-----------------------------|-----------------------------------------|
|-----------------------------|-----------------------------------------|
|--7--7--7--7---7---7---7--7--|--4b--4pb--4pb--4pb--4pb--4pb--4pb--4pb--|
|--7--7--7--7---7---7---7--7--|-----------------------------------------|
|--5--5--5--5---5---5---5--5--|-----------------------------------------|
|-----------------------------|-----------------------------------------|


|--------------------------|--------------------------|
|--------------------------|--------------------------|
|--4pbr-----2h-4p-2----4b--|---2-4-2---2--------------|
|--------------------------|---------5---5-2---2------|
|--------------------------|-----------------5---3-0--|
|--------------------------|--------------------------|


|--------------------------------------|
|--------------------------------------|
|------------------5---5h-7-5h-7p-5----|
|-------------5h-7---5-----------------|
|--0h-3h-5S-7--------------------------|
|--------------------------------------|


|--17p-15---------------17p-15---------------17p-15--------|
|---------17p-15---------------17p-15---------------17p-15-|
|----------------17p-14---------------17p-14---------------|
|----------------------------------------------------------|
|----------------------------------------------------------|
|----------------------------------------------------------|


|--------------------------------------------|
|--------------15----------------------------|
|--17p-14-17b-----17-14----14----------------|
|-----------------------17----17-14----------|
|-----------------------------------15-12----|
|--------------------------------------------|


|--------------------------------------------------|
|--------------------------------------------------|
|--------------------------14----------14----14-17-|
|-----------14-17----14-17----17-14-17----14-------|
|--12-15-17-------17-------------------------------|
|--------------------------------------------------|


                             Pre Verse:
|--------------------------|---------------------|---------------------|
|--------------------------|--7------5-----------|---------------------|
|--7--7--7--7--7--7--7--7--|---------------------|--6------4--------2--|
|--7--7--7--7--7--7--7--7--|---------------------|---------------------|
|--5--5--5--5--5--5--5--5--|---------------------|---------------------|
|--------------------------|---------------------|---------------------|
|
|--------------------------|---------------------|---------------------|
|--------------------------|---------------------|---------------------|
|--16b--16b--16b--14----\--|--4------2-----------|---------------------|
|--------------------------|---------------------|--4------2--------0--|
|--------------------------|---------------------|---------------------|
|--------------------------|---------------------|---------------------|


|----------------------|-------------------|---------------------|
|----------------------|-------------------|--7------5-----------|
|--4------2-----2------|-------------------|---------------------|
|----------------------|-------------------|---------------------|
|----------------------|-------------------|---------------------|
|----------------------|-------------------|---------------------|
|
|----------------------|-------------------|---------------------|
|----------------------|-------------------|---------------------|
|----------------------|-------------------|--4------2-----------|
|--2------0-----0------|-------------------|---------------------|
|----------------------|-------------------|---------------------|
|----------------------|-------------------|---------------------|


|-----------------------|---------------------|---------------------------|
|-----------------------|---------------------|---------5--7--5------7----|
|--6------4----2--4-----|--2---------------2--|--2gb6---------------------|
|-----------------------|---------------------|---------------------------|
|-----------------------|---------------------|---------------------------|
|-----------------------|---------------------|---------------------------|
|
|-----------------------|---------------------|---------------------------|
|-----------------------|---------------------|---------------------------|
|-----------------------|---------------------|---------2--4--2-----------|
|--4------2----0--2-----|--0---------------0--|--0gb4----------------4----|
|-----------------------|---------------------|---------------------------|
|-----------------------|---------------------|---------------------------|


|-------------------|---------------------------|-----|-----|
|--5----------------|---------------------------|-----|-----|
|-------------------|---------------------------|-----|-----|
|-------------------|---------------------------|-----|-----|
|-------------------|---------------------------|-----|-----|
|-------------------|---------------------------|-----|-----|
|
|-------------------|---------------------------|-----|-----|
|-------------------|---------------------------|-----|-----|
|-------------------|---------------------------|-----|-----|
|--2----------------|---------------------------|-----|-----|
|-------------------|---------------------------|-----|-----|
|-------------------|---------------------------|-----|-----|

Verse:
|--------------------------|--------------------------|
|--------------------------|--------------------------|
|--------x--------------x--|--------x--------------x--|
|--------x--------------x--|--------x--------------x--|
|--------x--------------x--|--------x--------------x--|
|--------------------------|--------------------------|


|--------------------------|----------------------------|
|--------------------------|----------------------------|
|--------x--------------x--|--------x-------------------|
|--------x--------------x--|--------x-----------12\-----|
|--------x--------------x--|--------x-----------12\-----|
|--------------------------|--------------------12\-----|


Chorus:
|--------------------------|--------------------------|
|--------------------------|--------------------------|
|--2--2--2--2--2--2--2--2--|--------------------------|
|--2--2--2--2--2--2--2--2--|--2--2--2--2--2--2--2--2--|
|--0--0--0--0--0--0--0--0--|--2--2--2--2--2--2--2--2--|
|--------------------------|--2--2--2--2--2--2--2--2--|
|
|--------------------------|--------------------------|
|--------------------------|--------------------------|
|--2--2--2--2--2--2--2--2--|--------------------------|
|--2--2--2--2--2--2--2--2--|--2--2--2--2--2--2--2--2--|
|--0--0--0--0--0--0--0--0--|--2--2--2--2--2--2--2--2--|
|--------------------------|--2--2--2--2--2--2--2--2--|


|--------------------------|----------------------------|
|--------------------------|----------------------------|
|-----------------------7--|--7--7--7--7--7-------------|
|--4--4--4--4--4--4--4--7--|--7--7--7--7--7--7br--7--5--|
|--4--4--4--4--4--4--4--5--|--5--5--5--5--5-------------|
|--4--4--4--4--4--4--4-----|----------------------------|
|
|--------------------------|----------------------------|
|--------------------------|----------------------------|
|-----------------------7--|--7--7--7--7--7--7----7--7--|
|--4--4--4--4--4--4--4--7--|--7--7--7--7--7--7----7--7--|
|--4--4--4--4--4--4--4--5--|--5--5--5--5--5--5----5--5--|
|--4--4--4--4--4--4--4-----|----------------------------|


|--------------------------|--------------------------|
|--------------------------|--------------------------|
|--2--2--2--2--2--2--2--2--|--------------------------|
|--2--2--2--2--2--2--2--2--|--2--2--2--2--2--2--2--2--|
|--0--0--0--0--0--0--0--0--|--2--2--2--2--2--2--2--2--|
|--------------------------|--2--2--2--2--2--2--2--2--|
|
|--------------------------|--------------------------|
|--------------------------|--------------------------|
|--2--2--2--2--2--2--2--2--|--------------------------|
|--2--2--2--2--2--2--2--2--|--2--2--2--2--2--2--2--2--|
|--0--0--0--0--0--0--0--0--|--2--2--2--2--2--2--2--2--|
|--------------------------|--2--2--2--2--2--2--2--2--|


|--------------------------|--------------------------|
|--------------------------|--------------------------|
|--7--------------------7--|-----7-----7-----7--7--7--|
|--7--------------------7--|-----7-----7-----7--7--7--|
|--5--------------------5--|-----5-----5-----5--5--5--|
|--------------------------|--------------------------|
|
|--------------------------|--------------------------|
|--------------------------|--------------------------|
|--7--------------------7--|-----7-----7-----7--7--7--|
|--7--------------------7--|-----7-----7-----7--7--7--|
|--5--------------------5--|-----5-----5-----5--5--5--|
|--------------------------|--------------------------|


|--------------------------|--------------------------|
|--------------------------|--------------------------|
|--2--2--2--2--2--2--2--2--|--------------------------|
|--2--2--2--2--2--2--2--2--|--2--2--2--2--2--2--2--2--|
|--0--0--0--0--0--0--0--0--|--2--2--2--2--2--2--2--2--|
|--------------------------|--2--2--2--2--2--2--2--2--|
|
|--------------------------|--------------------------|
|--------------------------|--------------------------|
|--2--2--2--2--2--2--2--2--|--------------------------|
|--2--2--2--2--2--2--2--2--|--2--2--2--2--2--2--2--2--|
|--0--0--0--0--0--0--0--0--|--2--2--2--2--2--2--2--2--|
|--------------------------|--2--2--2--2--2--2--2--2--|


|--------------------------|-----------------------------|
|--------------------------|-----------------------------|
|-----------------------7--|-----7-----6S--7S--6S--4-----|
|--4--4--4--4--4--4--4--x--|-----x-----x---x---x---x-----|
|--4--4--4--4--4--4--4--5--|-----5-----4S--5S--4S--2-----|
|--4--4--4--4--4--4--4-----|-----------------------------|
|
|--------------------------|-----------------------------|
|--------------------------|-----------------------------|
|--------------------------|--7--7--7--7---7---7---7--7--|
|--4--4--4--4--4--4--4--4--|--7--7--7--7---7---7---7--7--|
|--4--4--4--4--4--4--4--4--|--5--5--5--5---5---5---5--5--|
|--4--4--4--4--4--4--4--4--|-----------------------------|
2

|--------------------------|--------------------------|
|--------------------------|--------------------------|
|--2--2--2--2--2--2--2--2--|--------------------------|
|--2--2--2--2--2--2--2--2--|--2--2--2--2--2--2--2--2--|
|--0--0--0--0--0--0--0--0--|--2--2--2--2--2--2--2--2--|
|--------------------------|--2--2--2--2--2--2--2--2--|
|
|--------------------------|--------------------------|
|--------------------------|--------------------------|
|--2--2--2--2--2--2--2--2--|--------------------------|
|--2--2--2--2--2--2--2--2--|--2--2--2--2--2--2--2--2--|
|--0--0--0--0--0--0--0--0--|--2--2--2--2--2--2--2--2--|
|--------------------------|--2--2--2--2--2--2--2--2--|


|----------------------------|-----------------------------------|
|----------------------------|-----------------------------------|
|--7--7--7--7S--9--9--9--9S--|--11--11--11--11S--14--14--14--14--|
|--x--x--x--x---x--x--x--x---|---x---x---x---x----x---x---x---x--|
|--5--5--5--5S--7--7--7--7S--|---9---9---9---9S--12--12--12--12--|
|----------------------------|-----------------------------------|
|
|----------------------------|-----------------------------------|
|----------------------------|-----------------------------------|
|--7--7--7--7---7--7--7--7---|--7----7---7---7----7---7---7---7--|
|--7--7--7--7---7--7--7--7---|--7----7---7---7----7---7---7---7--|
|--5--5--5--5---5--5--5--5---|--5----5---5---5----5---5---5---5--|
|----------------------------|-----------------------------------|


Solo 2:
|----------------5-----5-----|--5-----5-----5-----5--------5--|
|------------------8-5---8-5-|----8-5---8-5---8-5---8-5-8-----|
|---------7b~----------------|--------------------------------|
|----------------------------|--------------------------------|
|----------------------------|--------------------------------|
|----------------------------|--------------------------------|


|--5--5--5------5--5--5------|--5-----5-----5-----5-----5-----5-|
|-----------8-5----------8-5-|----8-5---8-5---8-5---8-5---8-5---|
|----------------------------|----------------------------------|
|----------------------------|----------------------------------|
|----------------------------|----------------------------------|
|----------------------------|----------------------------------|


|------5-----5-----5-----5---------|----------------------------------|
|--8-5---8-5---8-5---8-5---8-5-----|--15b-----------15pb--15pb--15pb--|
|----------------------------------|----------------------------------|
|----------------------------------|----------------------------------|
|----------------------------------|----------------------------------|
|----------------------------------|----------------------------------|


|--------------------------------------------------------------------------|
|--15pb--15pb--15pb--15pb--15pb--15pb--15pb--15pb--15pb--15pb--15pb--15pb--|
|--------------------------------------------------------------------------|
|--------------------------------------------------------------------------|
|--------------------------------------------------------------------------|
|--------------------------------------------------------------------------|


|-------------------------------|------------------17-------17-------|
|--15pbr----13-15---------------|--------20b----------20-17----20-17-|
|-----------------14---------\--|------------------------------------|
|-------------------------------|------------------------------------|
|-------------------------------|------------------------------------|
|-------------------------------|------------------------------------|

(do a trem flutter for this)
|--17-------17-------17-------17-------17---------|
|-----20-17----20-17----20-17----20-17----20-17---|
|-------------------------------------------------|
|-------------------------------------------------|
|-------------------------------------------------|
|-------------------------------------------------|


|---------------------------------------------|-------------------------------|
|---------------------------------------------|-------------------------------|
|--19br-----17--------17----------------------|-------------------------------|
|---------------19-17----19-17----17----------|--17-19------------------------|
|------------------------------19----19-17-19-|--------17br-----15~-----------|
|---------------------------------------------|-------------------------------|


|--------20b--------------|--20b--20--17-20---------------------|
|-------------------------|-----------------20-20b--20b~--------|
|-------------------------|-------------------------------------|
|-------------------------|-------------------------------------|
|-------------------------|-------------------------------------|
|-------------------------|-------------------------------------|


|-----------------------------------------|----------------------------------|
|--------20b----20b----20b----20b----20b--|-----20b----20b----20b~-----------|
|-----------------------------------------|----------------------------------|
|-----------------------------------------|----------------------------------|
|-----------------------------------------|----------------------------------|
|-----------------------------------------|----------------------------------|


|--------------------------|---------------------|-----------------------||
|--------------------------|---------------------|-----------------------||
|--------------------------|---------------------|-----------------------||
|--9--7-----4--2-----0-----|---------------------|--7---7\---------------||
|-----------------------4--|-----2--5------------|--7---7\---------------||
|--------------------------|---------------------|--7---7\---------------||
|
|--------------------------|---------------------|-----------------------||
|--------------------------|---------------------|-----------------------||
|--------------------------|---------------------|-----------------------||
|--9--7-----4--2-----0--6--|-----9--0------------|--7---7\---------------||
|--9--7-----4--2-----0--4--|-----9--0------------|--7---7\---------------||
|--9--7-----4--2-----0-----|-----9--0------------|--7---7\---------------||


            
            
Suggest correction
Creating personal tab
Creating personal tab
You can edit any tab online and save it as your Personal.

You can edit, replace or remove any tab part or add personal notes – all changes will be seen only by you.

Personal tabs can be accessed anytime from any device, even offline.
Learn more »
Give kudos to tab author, rate the tab!
1 2 3 4 5
comments
print report bad tab
1 comment total.
0 reply
moist_seagull 272 Apr 21, 2016 10:37 AM

It's great apart from how the hell am i supposed to bend from 2nd fret to 6th what kind of fucked up guitar do you have

guest
You may want to rate the tab now too:
select rating
Wanna post a correction for this tab? Suggest correction