Oops, an error
Loading. Please wait.

Shooting Star tab

version 2
version 2

Whole song

9,387 views 1 this week
4 commentsread comments
1 2 3 4 5
x 10
add to favorites
×
Save as Personal and add changes to this tab that will be seen only by you. Learn more ›
×
You can save this tab as Personal to edit and correct it or add notes. All changes will be seen only by you. Learn more »
launch autoscroll
font size
0
reset
how to read this tab
guitar tuner
edit
Autoscroll
slow
fast
+/-
esc
set tempo
stop
Author
Difficulty
-------------------------------------------------------------------------------
                             SHOOTING STAR – Black Stone Cherry
-------------------------------------------------------------------------------
Tabbed by: Nick Dupont (sikk_nick)
Email: sikk_nick@yahoo.com

Tuning: Drop-Db
[Db,Ab,Db,Gb,Bb,Eb]


If you see this ****
Go to the bottom for details, explanations, etc.


| /  slide up
| \  slide down
| h  hammer-on
| p  pull-off
| ~  vibrato
| +  harmonic
| x  Mute note

^=bend    ^()
r=release bend

INTRO – use tremolo effect

|----------------------------|--------------------------|
|----------------------------|--------------------------|
|----------------------------|--------------------------|
|----------------------------|------------------3h4-----|
|------3---------------------|-----3----------------3p0-|
|--0-------5----3--0-3h5-3p0-|-0-------5---3--0---------|

|----------------------------|-------------------------|
|----------------------------|-------------------------|
|----------------------------|-------------------------|
|----------------------------|------------slow bend----|
|--0---3---------------------|-----3-------------------|
|--0-------5----3--0-3-5-3-0-|-0-------5-^^^-(7)-------|


VERSE RIFF #1  ****

|----------------------------|--------------------------|
|----------------------------|--------------------------|
|------5---------------------|-----5--------------------|
|--0---5---5-----------------|-0---5---5--------3h4-----|
|--0---3---5----3--0-3h5-3---|-0---3---5---3--0-----3---|
|--0-------5----3--0-3h5-3---|-0-------5---3--0---------|


|----------------------------|--------------------------|
|----------------------------|--------------------------|
|------5---------------------|-----5--------------------|
|--0---5---5-----------------|-0---5---5----------------|
|--0---3---5----3--0-3h5-3---|-0---3---5----------------|
|--0-------5----3--0-3h5-3---|-0-------5----------------|

VERSE Riff #2 ****
all the “chugging” notes are Palm-muted

|---------------------------------|--------------------------------|
|---------------------------------|--------------------------------|
|--------5------------------------|-------5------------------------|
|--0-----5-----5------------------|-0-----5-----5-----3---0-3h4----|
|--0-0-0-3-0-0-5-0-0-3-0-0-3h5-3--|-0-0-0-3-0-0-5-0-0-3-0-0-----3--|
|--0-0-0---0-0-5-0-0-3-0-0-3h5-3--|-0-0-0---0-0-5-0-0-3-0-0--------|

|---------------------------------|----------------|
|---------------------------------|----------------|
|--------5------------------------|-------5--------|
|--0-----5-----5-----3-----3-5-3--|-0-----5---5----|
|--0-0-0-3-0-0-5-0-0-3-0-0-3h5-3--|-0-----3---5----|
|--0-0-0---0-0-5-0-0-3-0-0-3h5-3--|-0-0-0-----5----|


CHORUS
Riff 1

Guitar 1 (rhythm)
|--------------------|--------------------|
|--------------------|--------------------|
|--5---5-----7---7---|--------------------|
|--5---5-----7---7---|--5---5-----3---3---|
|--3---3-----5---5---|--5---5-----3---3---|
|--------------------|--5---5-----3---3---|
Guitar 2 (Lead)
|--------------------|--------------------|
|--------------------|--------------------|
|--9---9----10--10---|--------------------|
|--x---x-----x---x---|--5---5-----3---3---|
|--7---7-----8---8---|--5---5-----3---3---|
|--------------------|--5---5-----3---3---|


CHORUS Riff 2a -- Both Guitars
|-------------------|-------------|-------------------|-------------|
|-------------------|-------------|-------------------|-------------|
|-------------------|--4/5--5--5--|-------------------|--4/7--7--7--|
|-------------------|--x----x--x--|-------------------|--x----x--x--|
|--0-3p2p0-2h3p2-0--|--2/3--3--3--|--0-3p2p0-2h3p2-0--|--2/5--5--5--|
|--0-3p2p0-2h3p2-0--|-------------|--0-3p2p0-2h3p2-0--|-------------|

CHORUS Riff 2b -- Both Guitars
|-------------------|-------------|---------------(2)-|-------------|
|-------------------|-------------|----------------3--|-------------|
|-------------------|--4/5--5--5--|----------------2--|-------------|
|-------------------|--x----x--x--|----------------0--|-------------|
|--0-3p2p0-2h3p2-0--|--2/3--3--3--|--0-3p2p0-2h3p2-0--|-------------|
|--0-3p2p0-2h3p2-0--|-------------|--0-3p2p0-2h3p2-0--|-------------|

|-------------------|-------------|-------------------|-------------|
|-------------------|-------------|-------------------|-------------|
|-------------------|--4/5--5--5--|-------------------|-------------|
|-------------------|--x----x--x--|----------------0--|-------------|
|--0-3p2p0-2h3p2-0--|--2/3--3--3--|--0-3p2p0-2h3p2-0--|-------------|
|--0-3p2p0-2h3p2-0--|-------------|--0-3p2p0-2h3p2-0--|-------------|
|
|-------------------|-------------|-------------------|-------------|
|-------------------|-------------|-------------------|-------------|
|-------------------|--4/5--5--5--|----------------7--|-------------|
|-------------------|--x----x--x--|----------------x--|-------------|
|--0-3p2p0-2h3p2-0--|--2/3--3--3--|--0-3p2p0-2h3p2-5--|-------------|
|--0-3p2p0-2h3p2-0--|-------------|--0-3p2p0-2h3p2----|-------------|


SOLO

Rhythm:
|----------|---------------------------|----------|------------------------------|
|----------|---------------------------|----------|------------------------------|
|----7-----|---------------------------|----7-----|------------------------------|
|-0--7--5--|---------------------------|-0--7--5--|------------------------------|
|-0--5--5--|---------------------------|-0--5--5--|------------------------------|
|-0-----5--|---------------------------|-0-----5--|------------------------------|
Lead:
|----------|---------------------------|----------13h15^(16)r15---13h15^(16)r15--|
|----------|---10----------------------|----------|------------------------------|
|----------|-----13p12p10--12--10------|----------|--half bend-------------------|
|----------|-12----------12--12--12v---|----------|--then release----------------|
|----------|---------------------------|----------|------------------------------|
|----------|---------------------------|----------|------------------------------|


|----------|---------------------------|----------|-------------------------------|
|----------|---------------------------|----------|-------------------------------|
|----7-----|---------------------------|----7-----|-------------------------------|
|-0--7--5--|---------------------------|-0--7--5--|-------------------------------|
|-0--5--5--|---------------------------|-0--5--5--|-------------------------------|
|-0-----5--|---------------------------|-0-----5--|-------------------------------|
|
|----------|----10---------------------|----------|-------------------------------|
|--------13^(15)--13p10--10------------|----------|---------------------------x-x-|
|----------|-----------12--12p10--12-10-v~~~------|---------------------------x-x-|
|----------|--------------------12-----|-------12\\---------------------------x-x-|
|----------|---------------------------|----------|---------------------------x-x-|
|----------|---------------------------|----------|-------------------------------|


SOLO PART 2

Rhythm:
|-------------------|------------------|--------------------|----------------|
|-------------------|------------------|--------------------|----------------|
|-------------------|--------7---5/7---|--------------------|--------7---5/7-|
|-------------------|--------x---x-----|--------------------|--------x---x---|
|--0-3p2p0-2h3p2-0--|--------5---3/5---|--0-3p2p0---2h3p2-0-|--------5---3/5-|
|--0-3p2p0-2h3p2-0--|------------------|--0-3p2p0---2h3p2-0-|----------------|
Lead:****
|-------------------|------------------|--------------------|----------------|
|--13----x-13----x--|-13--x-13--13/15--|-13-13-13/15--13--12|-12/13-13-------|
|---x----x--x----x--|--x--x--x---x-----|--x--x--x------x---x|--x-----x-------|
|--10----x-10----x--|-10--x-10--10/12--|-10-10-10/12--10---9|--9/10-10-------|
|-------------------|------------------|--------------------|----------------|
|-------------------|------------------|--------------------|----------------|


|-------------------|------------------|
|-------------------|------------------|
|-------------------|--------7---5/7---|
|-------------------|--------x---x-----|
|--0-3p2p0-2h3p2-0--|--------5---3/5---|
|--0-3p2p0-2h3p2-0--|------------------|
|
|-------------------|------------------|
|---15^18^r15-15p13-|--15-v------------|
|-----??------------|------------------|
|-------------------|------------------|
|-------------------|------------------|
|-------------------|------------------|


|----------------------------------------------------|----------------------|
|----------------------------------------------------|----------------------|
|--5--5--5--5---7--7--7--7---9--9--9--9--10-10-10-10-|--12--12----7-\-------|
|--5--5--5--5---7--7--7--7---9--9--9--9--10-10-10-10-|--12--12----7-\-------|
|--3--3--3--3---5--5--5--5---7--7--7--7---8--8--8--8-|--10--10----5-\-------|
|----------------------------------------------------|----------------------|
|
|---------------------------12-12-12-12--13-13-13-13-|--15--15--------------|
|-13-13-13-13--15-15-15-15---x--x--x--x---x--x--x--x-|---x---x---15-\-------|
|--x--x--x--x---x--x--x--x---9--9--9--9--10-10-10-10-|--12--12----x---------|
|-10-10-10-10--12-12-12-12---------------------------|-----------12-\-------|
|----------------------------------------------------|----------------------|
|----------------------------------------------------|----------------------|


BREAKDOWN:
|---------------------------|
|---------------------------|
|---------------------------|
|---0-0----0-0--------------|repeat
|---0-0----0-0--------------|
|---0-0----0-0--------------|


END

FIRST:
Rhythm: play verse riff #1.
Lead plays this:****
|-------------------|------------------|--------------------|----------------|
|--13----x-13----x--|-13--x-13--13--x--|-13-13-13/15--13--12|-12/13-13-------|
|-(12)---x--x----x--|--x--x--x---x--x--|--x--x--x------x---x|--x-----x-------|
|--10----x-10----x--|-10--x-10--10--x--|-10-10-10/12--10---9|--9/10-10-------|
|---0-------0-------|--0-----0---0-----|--------------------|----------------|
|-------------------|------------------|--------------------|----------------|


THEN:
Rhythm: play verse riff #2 (the one with the “chugging” notes)
Lead: play a bunch of muted notes
|---------------------------|
|---------------------------|
|---x-x--x------------------|
|---x-x--x------------------|
|---x-x--x------------------|
|---x-x--x----etc...--------|
And you can hear natural harmonics:
|---------------------------|
|---------------------------|
|---x-x-x-x---x-x-x-x-------|
|---x-x-x-x---5-5-5-5-------|
|---5-5-5-5---x-x-x-x-------|
|---x-x-x-x---x-x-x-x-------|

LAST:
Lead: keep playing the harmonics, until last measure
And rhythm plays:
|----------------------------------------------------|----------------------|
|----------------------------------------------------|----------------------|
|--5--5--5--5---7--7--7--7---9--9--9--9--10-10-10-10-|--12--12----7-\-------|
|--5--5--5--5---7--7--7--7---9--9--9--9--10-10-10-10-|--12--12----7-\-------|
|--3--3--3--3---5--5--5--5---7--7--7--7---8--8--8--8-|--10--10----5-\-------|
|----------------------------------------------------|----------------------|
|Lead:
|----------------------------------------------------|----------------------|
|----------------------------------------------------|------------7-\-------|
|--x--x--x--x---x--x--x--x---x--x--x--x---x--x--x--x-|------------x---------|
|-(5)===============================================-|------------4-\-------|
|--x--x--x--x---x--x--x--x---x--x--x--x---x--x--x--x-|----------------------|
|--x--x--x--x---x--x--x--x---x--x--x--x---x--x--x--x-|----------------------|

And for the last chord, lead stops doin the harmonics, and
Plays a harmonic third or whatever it’s called.

There you go.


****Performance Notes****

on the 2nd part of the solo (the high octave slides)
the exact tab would look something like this:
|-------------------|------------------|--------------------|------------------|
|--13----x-13----x--|-13--x-13--13/----|-13-13-13/15--13--12|-12/13-13---------|
|-(14)---x-14----x--|-14--x-14--14/-x--|--x--x--x------x---x|--x-----x---------|
|--10----x-10----x--|-10--x-10--10/12--|-10-10-10/12--10---9|--9/10-10---------|
|---0-------0-------|--0-----0---0-----|--------------------|------------------|
|-------------------|------------------|--------------------|------------------|
You can hear a dissonance, but I am not quite sure witch notes are the dissonance, and I 
it sounds just as good either way…

Same goes for here, towards the end of the song:
|-------------------|------------------|--------------------|----------------|
|--13----x-13----x--|-13--x-13--13--x--|-13-13-13/15--13--12|-12/13-13-------|
|-(12)---x-12----x--|-12--x-12--12--x--|--x--x--x------x---x|--x-----x-------|
|--10----x-10----x--|-10--x-10--10--x--|-10-10-10/12--10---9|--9/10-10-------|
|---0-------0-------|--0-----0---0-----|--------------------|----------------|
|-------------------|------------------|--------------------|----------------|

Variations:
1:13 – play verse riff 2---last chord
Instead of playing whole chord, just play the bottom note of the chord, and do a (slow) full bend.

1:24 — just do pick scrapes at the end of "verse riff 1."


And that be it for now.
===============================================================================
Suggest correction
Creating personal tab
Creating personal tab
You can edit any tab online and save it as your Personal.

You can edit, replace or remove any tab part or add personal notes – all changes will be seen only by you.

Personal tabs can be accessed anytime from any device, even offline.
Learn more »
comments
print report bad tab
4 comments total. Showing first comments.
+1 reply
totenkopfSG 20 Dec 28, 2006 03:29 PM

thanks for tabbing it.

i was about to tab it but you beat me to it.

+1 reply
zombiesabbath 62 Dec 28, 2006 06:21 PM

nice tab thanks

0 reply
FBA Ac1d 83 Dec 29, 2006 10:42 AM

I can tell you've been tabbing for a while.

I dont think the intro is right tho. I think its simplier than it sounds. But I may just be giving a noob anwser but o well...
I like it.

guest
You may want to rate the tab now too:
select rating
Wanna post a correction for this tab? Suggest correction