Oops, an error
Loading. Please wait.

Things My Father Said Tab

version 1
version 1

Intro

Whole song

31,410 views 45 this week
5 commentsread comments
1 2 3 4 5
excellent!
x 6
add to favorites
launch autoscroll
font size
0
reset
how to read this tab
guitar tuner
Tab Pro tools
  • play this tab
  • loop segment
  • change instrument
  • show fretboard
  • metronome
×
Best way to learn
"Things My Father Said"
Autoscroll
slow
fast
+/-
esc
set tempo
stop
Contributor
Tuning
D G C F A D
-------------------------------------------------------------------------------
                             Things My Father Said - Black Stone Cherry
-------------------------------------------------------------------------------
Tabbed by:brokenunder
Email:tears--dont--fall@hotmail.co.uk

Tuning:D standard (DGCFAd)

Intro(piano)
d|---------------------------------------------------------------------------|
A|2-4-5-5-5-4-2-00-----------------5-4-2-------------------------------------|
F|--------------------1---1------4--------6-4-22------1--4-2-1---------------|
C|-----------------2-4---2-2-4-------------6-------2-4-----------4-----------|
G|---------------------------------------------------------------------------|
D|---------------------------------------------------------------------------|

Verse(acoustic)
d|-----4-------5------7-------7------4-------5-------0-------7---------------|
A|----5-------5------7-------7------5-------5-------0-------7----------------|
F|---6-------6------9-------8------6-------6-------1-------8-----------------| 
C|--6-------7------9-------9------6-------7-------2-------9------------------|
G|-4-------7------7-------9------4-------7-------2-------9-------------------|
D|--------5--------------7--------------5-------0-------7--------------------| 

d|------5------4-------0-------7-------7------4------------------------------|
A|-----5------5-------0-------7-------7------5-------------------------------|
F|----6------6-------1-------8-------6------6--------------------------------|
C|---7------6-------2-------9-------7------6-----44444444-7777777------------|
G|--7------4-------2-------9-------7------4------44444444-7777777------------|
D|-5--------------0-------7-------5--------------22222222-5555555------------|
                                                 PM--------------|
Chorus
d|000000-777777-222222-555555------------------------------------------------|
A|000000-777777-222222-555555------------------------------------------------|
F|111111-888888-222222-666666------------------------------------------------|
C|222222-999999-444444-777777------------------------------------------------|
G|222222-999999-444444-777777-(strummed once on second time)-----------------|
D|000000-777777-222222-555555------------------------------------------------|
   you can either play barre chords or just plain powerchords for the chorus

Post-chorus
d|---------------------------------------------------------------------------|
A|2-4-5-5-5-4-2-00-----------------------------------------------------------|
F|--------------------1---1--------------------------------------------------|
C|-----------------2-4---2-2-4-----------------------------------------------|
G|---------------------------------------------------------------------------|
D|---------------------------------------------------------------------------|

Verse 2- guitar 1
d|---------------------------------------------------------------------------|
A|---------------------------------------------------------------------------|
F|-6-----------6-------------------------------------------------------------|
C|-6--7--2--9--6--7--2--9----------------------------------------------------|
G|-4--7--2--9--4--7--2--9----------------------------------------------------|
D|----5--0--7-----5--0--7----------------------------------------------------|

guitar 2
d|----------------------5-4--------------------------------------------------|
A|--5-55---------------------------------------------------------------------|
F|x------------------x-------------------------------------------------------|
C|x-----------4------x-----------4-------------------------------------------|
G|---------4-6--6p4-----------4-6--6p4---------------------------------------|
D|-----------------7-------------------7-------------------------------------|
  each one of these is played in between the single strum of each chord above
  not sure about the second lick cause its really quiet

guitar 1
d|---------------------------------------------------------------------------|
A|---------------------------------------------------------------------------|
F|---6-----------------------------------------------------------------------|
C|7--6--44444444-7777777-----------------------------------------------------|
G|7--4--44444444-7777777-----------------------------------------------------|
D|5-----22222222-5555555-----------------------------------------------------|
        PM-------------|

guitar 2
d|---4-2---------------------------------------------------------------------|
A|4-5---5-4-2----------------------------------------------------------------|
F|---------------------------------------------------------------------------|X3
C|---------------------------------------------------------------------------|
G|---------------------------------------------------------------------------|
D|---------------------------------------------------------------------------|
  again in betweem each strum of each chord above

Chorus

Bridge
d|---------------------------------------------------------------------------|
A|---------------------------------------------------------------------------|
F|77777777----------77777777---------77777777--------------------------------|
C|77777777-44444444-77777777-4-6-7---77777777-44444444-77777777-99999999-----|
G|55555555-44444444-55555555-4-6-7---55555555-44444444-77777777-99999999-----|
D|---------22222222----------2-4-5------------22222222-55555555-77777777-----|

Piano bit
d|-19--------19-------19-------19-------19-------19-------19-------17--------|
A|------17-------17-------19-------19-------17-------17-------17-----19-17---|
F|----16--16---16--16---16--16---16--16---16--16---16--16---16--16-----------|
C|---------------------------------------------------------------------------|
G|---------------------------------------------------------------------------|
D|---------------------------------------------------------------------------|
     

d|-16-------19-----------------19----------------16-------19~----------------|
A|-----17-------17----19--16-------16----17--19------17----------------------|
F|---16--16---16--16----16--16---16--16----16--16--16--16--------------------|
C|---------------------------------------------------------------------------|
G|---------------------------------------------------------------------------|
D|---------------------------------------------------------------------------|

Chorus

Solo
d|---------------------------------------------------------------------------|
A|--------------------------/14-12-9\5---------------------------------------|
F|-11b12r11--9~--11b12r11-9--------------------------------------------------|
C|---------11---------------------------11p9h11-9p6h9---4-2~-----------------|
G|---------------------------------------------------------------------------|
D|---------------------------------------------------------------------------|

d|--------------------------------12-----------------------------------------|
A|-12-12h14p12---------12-12h14p12-------------------------------------------|
F|------------13-11-----------------11-------9h11p9-----9-/13-11--9~---------|
C|-----------------14-----------------14---9--------9h11--------11-----------|
G|---------------------------------------------------------------------------|
D|---------------------------------------------------------------------------|

not a perfect solo i know but it was suprisingly difficult to work out.

have fun XD





| /  slide up
| \  slide down
| h  hammer-on
| p  pull-off
| ~  vibrato
| +  harmonic
| x  Mute note
===============================================================================
comments
print report bad tab
5 comments total. Showing first comments.
+3 reply
Kreuger wrote on September 5 2008, 03:12 pm

Seems pretty good to me. Interesting to see them tuning down to D Standard. I had a feeling this album was a little heavier. One small thing, in verse 2 guitar 2 sounds like it might be playing chords at times.

0 reply
Andy_VonSchweal wrote on April 10 2009, 01:27 pm

i love this song. this tab works for me... thanks!

0 reply
bv310 wrote on April 20 2009, 04:12 pm

Great song. Tab seems good too.

I want to post or [tab]
guest
You may want to rate the tab now too:
select rating
Please do not post tabs as comments. Select "correction" instead!