Oops, an error
Loading. Please wait.

Violator Girl bass

2,598 views 1 this week
no commentswrite comment
1 2 3 4 5
3 more votes to show rating
add to favorites
×
Save as Personal and add changes to this tab that will be seen only by you. Learn more ›
×
You can save this tab as Personal to edit and correct it or add notes. All changes will be seen only by you. Learn more »
launch autoscroll
font size
0
reset
guitar tuner
edit
Autoscroll
slow
fast
+/-
esc
set tempo
stop
Violator Girl
Black Stone Cherry

the song is technically in drop c, but you only use the 2 bottom 
strings so thats all you have to drop

start riff

F------------------------|
C------------------------|
G---3h5-3-------3h5-3----|
C---------5030-------5030|

uses a lot of pulls and hammers
repeated over and over in all the verses

Chorus and solo riff

F-------------------------------------|
C-------------------------------------|
G--------------------5----4----3----2-|
C---3-3-333-5-5-555----3-5--3-5--3-5--|

end of solo

F----------------------------------------|
C----------------------------------------|
G---5555------4444-----3333--1111--------|
C----------------------------------5-3-0-|


Bridge after solo

F----------------------------------|
C----------------------------------|
G----------------------------------|
C---5-3-0--5-3-0-XXXX-5-3-0--5-3-0-|

Outro

F----------------------------|
C----------------------------|
G--------------------------7-|
C---0-0-0-0-000--0-0-0-0-00--|

F----------------------------|
C----------------------------|
G------------------5----3----|
C---0-0-0-0-000-3-5--3-5--3-0|

Any Problems, shadow-play@live.com
Suggest correction
Creating personal tab
Creating personal tab
You can edit any tab online and save it as your Personal.

You can edit, replace or remove any tab part or add personal notes – all changes will be seen only by you.

Personal tabs can be accessed anytime from any device, even offline.
Learn more »
Give kudos to tab author, rate the tab!
1 2 3 4 5
comments
print report bad tab
guest
You may want to rate the tab now too:
select rating
Wanna post a correction for this tab? Suggest correction