Oops, an error
Loading. Please wait.

When The Weight Comes Down intro tab

version 1
version 1

Intro

Whole song

2,165 views 1 this week
4 commentsread comments
1 2 3 4 5
x 4
add to favorites
×
Save as Personal and add changes to this tab that will be seen only by you. Learn more ›
×
You can save this tab as Personal to edit and correct it or add notes. All changes will be seen only by you. Learn more »
launch autoscroll
font size
0
reset
how to read this tab
guitar tuner
edit
Autoscroll
slow
fast
+/-
esc
set tempo
stop
Band: Black Stone Cherry
Song: When the Weight Comes Down
Album: Black Stone Cherry
Tab by: Brandon Stanley

Intro:
D#-----------------------------------------|
A#-----------------------------------------|
F#-----------5-5-5---3-3-3---5-5-5---------|     6 times
C#---0-3-0---5-5-5---3-3-3---5-5-5---------|
G#---0-3-0---3-3-3---1-1-1---3-3-3---------|
C#---0-3-0---------------------------------|


That's all I've got for now.  If anybody has the rest of this song or any other Black 
Cherry songs email me at slashrockr777@gmail.com.  Black Stone Cherry rocks!
Suggest correction
Creating personal tab
Creating personal tab
You can edit any tab online and save it as your Personal.

You can edit, replace or remove any tab part or add personal notes – all changes will be seen only by you.

Personal tabs can be accessed anytime from any device, even offline.
Learn more »
comments
print report bad tab
4 comments total. Showing first comments.
0 reply
Kreuger 792 May 05, 2008 02:37 PM

Any chance of finishing it?

+1 reply
Kreuger 792 Aug 08, 2008 11:00 AM

I think the prechorus is

D#---------------------------------------|
A#---------------------------------------|
F#-----3-3-3---5-5-5---------------------|
C#-----3-3-3---5-5-5---0-0-0---3-3-3-----|
G#-----1-1-1---3-3-3---0-0-0---3-3-3-----|
C#---------------------0-0-0---3-3-3-----|

0 reply
slashpagewylde 37 Aug 08, 2008 11:14 AM

Thanks man. That works pretty well for the prechorus.

guest
You may want to rate the tab now too:
select rating
Wanna post a correction for this tab? Suggest correction