Oops, an error
Loading. Please wait.

Rumble Pit Tab

29 views 1 this week
1 commentread comment
1 2 3 4 5
3 more votes to show rating
add to favorites
launch autoscroll
font size
0
reset
how to read this tab
guitar tuner
Autoscroll
slow
fast
+/-
esc
set tempo
stop
Help us to improve Ultimate-Guitar.com Take our survey!
×
Author
Difficulty
Tuning
intermediate
D A D G B E
Intro
E[------------------------------------------------]
B[------------------------------------------------]
G[8-8-8-8-8-8-8-8-8-8/9-\\4-4-4-4-4-4-4-4-4-4-4-4/]
D[6-6-6-6-6-6-6-6-6-6/7-\\2-2-2-2-2-2-2-2-2-2-2-2/] x3
A[------------------------------------------------]
D[------------------------------------------------] 


E[-------------------------------------0----------]
B[-------------------------------------0----------]
G[8-8-8-8-8-8-8-8-8-8/9-\\4-4-4-4-4-4--0----------]
D[6-6-6-6-6-6-6-6-6-6/7-\\2-2-2-2-2-2-------------] x1
A[------------------------------------------------]
D[-------------------------------------------12\\\] 


Verse
E[--------------------------------]    E[--------------------------------]
B[--------------------------------]    B[--------------------------------]
G[--------------------------------]    G[--------------------------------]
D[-1-----1-----1------------------] x3 D[-1-----1-----1------1h3-0-5h3---] x1
A[-1-x-x-1-x-x-1-x-x--------------]    A[-1-x-x-1-x-x-1-x-x--1h3-0-5h3---]
D[-1-x-x-1-x-x-1-x-x--1h3-0h5p0---]    D[-1-x-x-1-x-x-1-x-x--1h3-0-5h3---]


E[--------------------------------]    E[--------------------------------]
B[--------------------------------]    B[--------------------------------]
G[--------------------------------]    G[--------------------------------]
D[-1-----1-----1------------------] x3 D[-1-----1-----1------1h3-0-5h3---] x1
A[-1-x-x-1-x-x-1-x-x--------------]    A[-1-x-x-1-x-x-1-x-x--1h3-0-5h3---]
D[-1-x-x-1-x-x-1-x-x--1h3-0h5p0---]    D[-1-x-x-1-x-x-1-x-x--1h3-0-5h3---]


E[--------------------------------]    E[--------------------------------]
B[--------------------------------]    B[--------------------------------]
G[--------------------------------]    G[--------------------------------]
D[-1-----1-----1------------------] x3 D[-1-----1-----1------1h3-0-5h3---] x1
A[-1-x-x-1-x-x-1-x-x--------------]    A[-1-x-x-1-x-x-1-x-x--1h3-0-5h3---]
D[-1-x-x-1-x-x-1-x-x--1h3-0h5p0---]    D[-1-x-x-1-x-x-1-x-x--1h3-0-5h3---]


Chorus
E[------------------------------------------------]    [---------]
B[------------------------------------------------]    [---------]
G[------------------------------------------------]    [---------]
D[-12----10-13----------------13----10---0--------] x2 [---------] x1
A[-12----10-13----------------13----10---0--------]    [---------]
D[-12----10-13----10h12-12-12-13----10---0--------]    [--12\\\--]


Verse
E[--------------------------------]    E[--------------------------------]
B[--------------------------------]    B[--------------------------------]
G[--------------------------------]    G[--------------------------------]
D[-1-----1-----1------------------] x3 D[-1-----1-----1------1h3-0-5h3---] x1
A[-1-x-x-1-x-x-1-x-x--------------]    A[-1-x-x-1-x-x-1-x-x--1h3-0-5h3---]
D[-1-x-x-1-x-x-1-x-x--1h3-0h5p0---]    D[-1-x-x-1-x-x-1-x-x--1h3-0-5h3---]


E[--------------------------------]    E[--------------------------------]
B[--------------------------------]    B[--------------------------------]
G[--------------------------------]    G[--------------------------------]
D[-1-----1-----1------------------] x3 D[-1-----1-----1------1h3-0-5h3---] x1
A[-1-x-x-1-x-x-1-x-x--------------]    A[-1-x-x-1-x-x-1-x-x--1h3-0-5h3---]
D[-1-x-x-1-x-x-1-x-x--1h3-0h5p0---]    D[-1-x-x-1-x-x-1-x-x--1h3-0-5h3---]


E[--------------------------------]    E[--------------------------------]
B[--------------------------------]    B[--------------------------------]
G[--------------------------------]    G[--------------------------------]
D[-1-----1-----1------------------] x3 D[-1-----1-----1------1h3-0-5h3---] x1
A[-1-x-x-1-x-x-1-x-x--------------]    A[-1-x-x-1-x-x-1-x-x--1h3-0-5h3---]
D[-1-x-x-1-x-x-1-x-x--1h3-0h5p0---]    D[-1-x-x-1-x-x-1-x-x--1h3-0-5h3---]


Chorus
E[------------------------------------------------]    
B[------------------------------------------------]    
G[------------------------------------------------]    
D[-12----10-13----------------13----10---0--------] x2 
A[-12----10-13----------------13----10---0--------]    
D[-12----10-13----10h12-12-12-13----10---0--------]


Interlude
E[------------------------------------------------]
B[------------------------------------------------]
G[8-8-8-8-8-8-8-8-8-8/9-\\4-4-4-4-4-4-4-4-4-4-4-4/]
D[6-6-6-6-6-6-6-6-6-6/7-\\2-2-2-2-2-2-2-2-2-2-2-2/] x3
A[------------------------------------------------]
D[------------------------------------------------] 


E[-------------------------------------0----------]
B[-------------------------------------0----------]
G[8-8-8-8-8-8-8-8-8-8/9-\\4-4-4-4-4-4--0----------]
D[6-6-6-6-6-6-6-6-6-6/7-\\2-2-2-2-2-2-------------] x1
A[------------------------------------------------]
D[-------------------------------------------12\\\]  


Breakdown {percussion section}   
E[--------------------------------]
B[--------------------------------]
G[--------------------------------]
D[-1p0---1p0---1p0----0h1-0-1h3---] x2
A[-1p0---1p0---1p0----0h1-0-1h3---]
D[-1p0-0-1p0-0-1p0-0--0h1-0-1h3---]


E[--------------------------------]
B[--------------------------------]
G[--------------------------------]
D[-1-x-x-1-x-x-1-x-x----1---1-----] x2
A[-1-x-x-1-x-x-1-x-x--xh1-x-1-----]
D[-1-x-x-1-x-x-1-x-x--xh1-x-1h3b--]
pm . . . . . . . . .  . . . . . 


Outro
E[--------------------------------]
B[--------------------------------]
G[--------------------------------]
D[-1p0---1p0---1p0----0h1-0-1h3---] x3
A[-1p0---1p0---1p0----0h1-0-1h3---]
D[-1p0-0-1p0-0-1p0-0--0h1-0-1h3---]

   
E[---------------------.]
B[---------------------.]
G[---------------------.]
D[-1p0---1p0---1p0----1.] x1
A[-1p0---1p0---1p0----1.]
D[-1p0-0-1p0-0-1p0-0--1.]

Suggest correction
Give kudos to tab author, rate the tab!
1 2 3 4 5
comments
print report bad tab
1 comment total.
0 reply
Systolic 167 Jul 25, 2013 09:47 PM

  Outro x4 

guest
You may want to rate the tab now too:
select rating
Wanna post a correction for this tab? Suggest correction