Oops, an error
Loading. Please wait.

Shockwave tab

version 3
version 3

Whole song

Interactive

469 views 6 this week
no commentswrite comment
1 2 3 4 5
2 more votes to show rating
add to favorites
×
Save as Personal and add changes to this tab that will be seen only by you. Learn more ›
×
You can save this tab as Personal to edit and correct it or add notes. All changes will be seen only by you. Learn more »
launch autoscroll
font size
0
reset
how to read this tab
guitar tuner
backing track
0:00
0:00
edit
Autoscroll
slow
fast
+/-
esc
set tempo
stop
 Q=184
 4/4
  Gtr I
  E   +E  E E  E  E E E  E    E E E  E  E E E E
|---|-----------------------|-------------------|
|---|-----------------------|-------------------|
|---|-------9--7------7--5--|-----5--4----------|
|-2-|-(2)---7-(7)-----5-(5)-|-----4-(4)-------2-|
|-0-|-(0)-0-------0-0-------|-0-0-------0-0-0-0-|
|---|-----------------------|-------------------|
|
| Gtr II
| E    W                      W
|---|-----------------------|-------------------|
|---|-----------------------|-------------------|
|---|-----------------------|-------------------|
|---|-----------------------|-------------------|
|---|-----------------------|-------------------|
|---|-----------------------|-------------------|


  +E  E E  E  E E E  E    E E E  E  E E E E
|-----------------------|--------------------|
|-----------------------|--------------------|
|-------9--7------7--5--|-----5--4-----------|
|-(2)---7-(7)-----5-(5)-|-----4-(4)-------2--|
|-(0)-0-------0-0-------|-0-0-------6-5-3-0--|
|-----------------------|--------------------|
|
|  W                      W
|-----------------------|--------------------|
|-----------------------|--------------------|
|-----------------------|--------------------|
|-----------------------|--------------------|
|-----------------------|--------------------|
|-----------------------|--------------------|


  +E  E E  E  E E E  E     E  E E  E  E E E E
|-----------------------|---------------------|
|-----------------------|---------------------|
|-------9--7------7--5--|-------5--4----------|
|-(2)---7-(7)-----5-(5)-|-------4-(4)-------2-|
|-(0)-0-------0-0-------|--0--0-------0-0-0-0-|
|-----------------------|---------------------|
|
|  W                      +W
|-----------------------|---------------------|
|-----------------------|---------------------|
|-----------------------|---------------------|
|-/7--------------------|-(7)-----------------|
|-----------------------|---------------------|
|-----------------------|---------------------|


  +E  E E  E  E E E  E    E  E E  E  E E E E
|-----------------------|--------------------|
|-----------------------|--------------------|
|-------9--7------7--5--|------5--4----------|
|-(2)---7-(7)-----5-(5)-|------4-(4)-------2-|
|-(0)-0-------0-0-------|-0--0-------6-5-3-0-|
|-----------------------|--------------------|
|
|  W                      H.             E E
|-----------------------|--------------------|
|-----------------------|--------------------|
|-----------------------|--------------------|
|-----------------------|------------------2-|
|-----------------------|------------------0-|
|-----------------------|--------------------|


    +E  E E  E  E E E  E    E E E  E  E E E E
||------------------------|-------------------|
||o-----------------------|-------------------|
||--------9--7------7--5--|-----5--4----------|
||--(2)---7-(7)-----5-(5)-|-----4-(4)-------2-|
||o-(0)-0-------0-0-------|-0-0-------0-0-0-0-|
||------------------------|-------------------|
|
|   +E  E E  E  E E E  E    E E E  E  E E E E
||------------------------|-------------------|
||o-----------------------|-------------------|
||--------9--7------7--5--|-----5--4----------|
||--(2)---7-(7)-----5-(5)-|-----4-(4)-------2-|
||o-(0)-0-------0-0-------|-0-0-------0-0-0-0-|
||------------------------|-------------------|


  +E  E E  E  E E E  E    E E E  E  E E E E
|-----------------------|---------------------||
|-----------------------|--------------------o||
|-------9--7------7--5--|-----5--4------------||
|-(2)---7-(7)-----5-(5)-|-----4-(4)-------2---||
|-(0)-0-------0-0-------|-0-0-------6-5-3-0--o||
|-----------------------|---------------------||
|
| +E  E E  E  E E E  E    E E E  E  E E E E
|-----------------------|---------------------||
|-----------------------|--------------------o||
|-------9--7------7--5--|-----5--4------------||
|-(2)---7-(7)-----5-(5)-|-----4-(4)-------2---||
|-(0)-0-------0-0-------|-0-0-------6-5-3-0--o||
|-----------------------|---------------------||

1st Verse:

  +E  E E  E  E E E  E    E E E  E  E E E E
|-----------------------|-------------------|
|-----------------------|-------------------|
|-------9--7------7--5--|-----5--4----------|
|-(2)---7-(7)-----5-(5)-|-----4-(4)-------2-|
|-(0)-0-------0-0-------|-0-0-------0-0-0-0-|
|-----------------------|-------------------|
|
| +E  E E  E  E E E  E    E E E  E  E E E E
|-----------------------|-------------------|
|-----------------------|-------------------|
|-------9--7------7--5--|-----5--4----------|
|-(2)---7-(7)-----5-(5)-|-----4-(4)-------2-|
|-(0)-0-------0-0-------|-0-0-------0-0-0-0-|
|-----------------------|-------------------|


  +E  E E  E  E E E  E    E E E  E  E E E E
|-----------------------|-------------------|
|-----------------------|-------------------|
|-------9--7------7--5--|-----5--4----------|
|-(2)---7-(7)-----5-(5)-|-----4-(4)---------|
|-(0)-0-------0-0-------|-0-0-------6-5-3-3-|
|-----------------------|-------------------|
|
| +E  E E  E  E E E  E    E E E  E  E E E E
|-----------------------|-------------------|
|-----------------------|-------------------|
|-------9--7------7--5--|-----5--4----------|
|-(2)---7-(7)-----5-(5)-|-----4-(4)---------|
|-(0)-0-------0-0-------|-0-0-------6-5-3-3-|
|-----------------------|-------------------|


  +E  E E  E  E E E  E    E E E  E  E E E E
|-----------------------|-------------------|
|-----------------------|-------------------|
|-------9--7------7--5--|-----5--4----------|
|-------7-(7)-----5-(5)-|-----4-(4)---------|
|-(3)-3-------0-0-------|-0-0-------6-5-3-5-|
|-----------------------|-------------------|
|
| +E  E E  E  E E E  E    E E E  E  E E E E
|-----------------------|-------------------|
|-----------------------|-------------------|
|-------9--7------7--5--|-----5--4----------|
|-------7-(7)-----5-(5)-|-----4-(4)---------|
|-(3)-3-------0-0-------|-0-0-------6-5-3-5-|
|-----------------------|-------------------|


  +E  E E  E  E E E  E    E E E E E E E E
|-----------------------|-----------------|
|-----------------------|-----------------|
|-------9--7------7--5--|-----------------|
|-------7-(7)-----5-(5)-|-x-x-x-x-x-x-x-2-|
|-(5)-5-------0-0-------|-x-x-x-x-x-x-x-0-|
|-----------------------|-----------------|
|
| +E  E E  E  E E E  E    E E E E E E E E
|-----------------------|-----------------|
|-----------------------|-----------------|
|-------9--7------7--5--|-----------------|
|-------7-(7)-----5-(5)-|-x-x-x-x-x-x-x-2-|
|-(5)-5-------0-0-------|-x-x-x-x-x-x-x-0-|
|-----------------------|-----------------|


  +E  E E  E  E E E  E    E    E  E  E  E E E E
|-----------------------|-----------------------|
|-----------------------|-----------------------|
|-------9--7------7--5--|---------5--4----------|
|-(2)---7-(7)-----5-(5)-|---------4-(4)-------2-|
|-(0)-0-------0-0-------|-0----0--------0-0-0-0-|
|-----------------------|-----------------------|
|
| +E  E E  E  E E E  E    E   +E  E  E  E E E E
|-----------------------|-----------------------|
|-----------------------|-----------------------|
|-------5--7------5--7--|-7b8-(7)-5-------------|
|-(2)-7---------7-------|------------7--------2-|
|-(0)-------------------|---------------6-5-3-0-|
|-----------------------|-----------------------|


  +E  E E  E  E E E  E    E    E  E  E  E E E E
|-----------------------|-----------------------|
|-----------------------|-----------------------|
|-------9--7------7--5--|---------5--4----------|
|-(2)---7-(7)-----5-(5)-|---------4-(4)---------|
|-(0)-0-------0-0-------|-0----0--------6-5-3-3-|
|-----------------------|-----------------------|
|
| +E  E E  E  E E E  E    E   +E  E  E  E E E E
|-----------------------|-----------------------|
|-----------------------|-----------------------|
|-------5--7------5--7--|-7b8-(7)-5-------------|
|-(2)-7---------7-------|------------7----------|
|-(0)-------------------|---------------6-5-3-3-|
|-----------------------|-----------------------|


  +E  E E  E  E E E  E    E    E  E  E  E E E E
|-----------------------|-----------------------|
|-----------------------|-----------------------|
|-------9--7------7--5--|---------5--4----------|
|-------7-(7)-----5-(5)-|---------4-(4)---------|
|-(3)-3-------0-0-------|-0----0--------6-5-3-5-|
|-----------------------|-----------------------|
|
| +E  E E  E  E E E  E    E   +E  E  E  E E E E
|-----------------------|-----------------------|
|-----------------------|-----------------------|
|-------5--7------5--7--|-7b8-(7)-5-------------|
|-----7---------7-------|------------7----------|
|-(3)-------------------|---------------6-5-3-5-|
|-----------------------|-----------------------|


  +E  E E  E  E E E  E    E    E  E  E  E E E E
|-----------------------|-----------------------|
|-----------------------|-----------------------|
|-------9--7------7--5--|---------5--4----------|
|-------7-(7)-----5-(5)-|---------4-(4)-------2-|
|-(5)-5-------0-0-------|-0----0--------6-5-3-0-|
|-----------------------|-----------------------|
|
| +E  E E  E  E E E  E    E   +E  E  E  E E E E
|-----------------------|-----------------------|
|-----------------------|-----------------------|
|-------5--7------5--7--|-7b8-(7)-5-------------|
|-----7---------7-------|------------7--------2-|
|-(5)-------------------|---------------6-5-3-0-|
|-----------------------|-----------------------|


  +W           E E E E E E E E
|------------|-----------------|
|------------|-----------------|
|------------|-----------------|
|-(2)--------|-x-x-x-x-x-x-x-5-|
|-(0)--------|-x-x-x-x-x-x-x-3-|
|------------|-----------------|
|
| +W           E E E E E E E E
|------------|-----------------|
|------------|-----------------|
|------------|-----------------|
|-(2)--------|---------------5-|
|-(0)--------|-5-6-5-3-5-3-0-3-|
|------------|-----------------|

1st Chorus:

    +E  E E Q  E E E   +E  E E Q  Q  E
||-------------------|-----------------|
||o------------------|-----------------|
||-------------------|-----------------|
||--(5)-5-5--------7-|-(7)-7-7-------2-|
||o-(3)-3-3-5--5-5-5-|-(5)-5-5-2--5--0-|
||----------3--3-3---|---------0--3----|
|
|   +E  E E Q  E E E   +E  E E Q  Q  E
||-------------------|-----------------|
||o------------------|-----------------|
||-------------------|-----------------|
||--(5)-5-5--------7-|-(7)-7-7-------2-|
||o-(3)-3-3-5--5-5-5-|-(5)-5-5-2--5--0-|
||----------3--3-3---|---------0--3----|


  +E  E E  E  E E E  E    E E E  E  E E E E   3x
|-----------------------|---------------------||
|-----------------------|--------------------o||
|-------9--7------7--5--|-----5--4------------||
|-(2)---7-(7)-----5-(5)-|-----4-(4)-------5---||
|-(0)-0-------0-0-------|-0-0-------0-0-0-3--o||
|-----------------------|---------------------||
|
| +E  E E  E  E E E  E    E E E  E  E E E E   3x
|-----------------------|---------------------||
|-----------------------|--------------------o||
|-----------------------|---------------------||
|-(2)-2-2--2--2-2-2--2--|-2-2-2--2--2-2-2-5---||
|-(0)-0-0--0--0-0-0--0--|-0-0-0--0--0-0-0-3--o||
|-----------------------|---------------------||


  +E  E E Q  E E E   +E  E E Q  Q  E
|------------------|-----------------|-|
|------------------|-----------------|-|
|------------------|-----------------|-|
|-(5)-5-5--------7-|-(7)-7-7-------2-|-|
|-(3)-3-3-5--5-5-5-|-(5)-5-5-2--5--0-|-|
|---------3--3-3---|---------0--3----|-|
|
| +E  E E Q  E E E   +E  E E Q  Q  E
|------------------|-----------------|-|
|------------------|-----------------|-|
|------------------|-----------------|-|
|-(5)-5-5--------7-|-(7)-7-7-------2-|-|
|-(3)-3-3-5--5-5-5-|-(5)-5-5-2--5--0-|-|
|---------3--3-3---|---------0--3----|-|

Interlude:

  +E  E E  E  E E E  E    E E E  E  E E E E
|-----------------------|-------------------|
|-----------------------|-------------------|
|-------9--7------7--5--|-----5--4----------|
|-(2)---7-(7)-----5-(5)-|-----4-(4)-------2-|
|-(0)-0-------0-0-------|-0-0-------0-0-0-0-|
|-----------------------|-------------------|
|
| +E  E E  E  Q   E  E    E E E  E  E E E E
|-----------------------|-------------------|
|-----------------------|-------------------|
|-----------------------|-------------------|
|-(2)---5--7------------|-----------------2-|
|-(0)-0-------6---0--3--|-5-6-5--3--5-3-0-0-|
|-----------------------|-------------------|


  +E  E E  E  E E E  E    E E E  E  E E E E
|-----------------------|-------------------|
|-----------------------|-------------------|
|-------9--7------7--5--|-----5--4----------|
|-(2)---7-(7)-----5-(5)-|-----4-(4)-------2-|
|-(0)-0-------0-0-------|-0-0-------6-5-3-0-|
|-----------------------|-------------------|
|
| +E  E E  E  Q   E  E    E E E  E  E E E E
|-----------------------|-------------------|
|-----------------------|-------------------|
|-----------------------|-------------------|
|-(2)---5--7------------|-----------------2-|
|-(0)-0-------6---0--3--|-5-6-5--3--5-3-0-0-|
|-----------------------|-------------------|


  +E  E  E  E   E E  E  E     E  E  E  E   E  E  E  E
|--------------------------|--------------------------|
|--------------------------|--------------------------|
|--------9--7--------7--5--|--------5--4--------------|
|-(2)----7-(7)-------5-(5)-|--------4-(4)-----------2-|
|-(0)-0---------0-0--------|--0--0---------0--0--0--0-|
|--------------------------|--------------------------|
|
| +E  E  E  E   Q    E  E     E  E  E  E   E  E  E  E
|--------------------------|--------------------------|
|--------------------------|--------------------------|
|--------------------------|--------------------------|
|-(2)----5--7--------------|---------------------5--7-|
|-(0)-0---------6----0--3--|--5--6--5--3---5--7-------|
|--------------------------|--------------------------|
|
| Gtr III
|  Q     E  E   Q    E  E     E  E  E  E   E  E  E  E
|--------------------------|--------------------------|
|--------------------------|--------------------------|
|-------12-14--------------|--------------------12-14-|
|--------------13----------|-12-13-12-----12-16-------|
|-------------------12-15--|----------15--------------|
|--------------------------|--------------------------|


   +E    E     E    E      E   E     E    E        E   E     E    E      E   E     E  E
|-----------------------------------------------|--------------------------------------------|
|-----------------------------------------------|--------------------------------------------|
|--------------9----7----------------7----5-----|------------5----4--------------------------|
|--(2)---------7---(7)---------------5---(5)----|------------4---(4)------------------2------|
|--(0)---0-----------------0---0----------------|--0---0-----------------6---5-----3--0------|
|-----------------------------------------------|--------------------------------------------|
|
|  +E    E     E    E      E   E     E    E        E   E     E    E      E   E     E  E
|-----------------------------------------------|--------------------------------------------|
|-----------------------------------------------|--------------------------------------------|
|-----------------------------------------------|--------------------------------------------|
|--(7)------------------------------------------|-------------------------------------2------|
|--------0-----0----0------0---0-----0----0-----|--0---0-----0----0------0---0-----0--0------|
|-----------------------------------------------|--------------------------------------------|
|
|   |---3---|  |---3----|  |--3---|  |---3----|    |--3---|  |---3----|  |--3---|
|  +E  E    E  E E      E  E E    E  E E      E    E E    E  E E      E  E E    E  E  E
|-----------------------------------------------|------------------------------------15b17===|
|-----------------------------------------------|--------------------------------------------|
|-(14)-9------14-9--------14-9------14-9--------|-14-9------14-9--------14-9------14---------|
|----------10----------10--------10----------10-|--------10----------10--------10------------|
|-----------------------------------------------|--------------------------------------------|
|-----------------------------------------------|--------------------------------------------|

2nd Verse:

   +E  E E  E  E E E  E    E    E  E  E  E E E E
|------------------------|-----------------------|
|------------------------|-----------------------|
|--------9--7------7--5--|---------5--4----------|
|--(2)---7-(7)-----5-(5)-|---------4-(4)-------2-|
|--(0)-0-------0-0-------|-0----0--------0-0-0-0-|
|------------------------|-----------------------|
|
|  +E  E E  E  E E E  E    E   +E  E  E  E E E E
|------------------------|-----------------------|
|------------------------|-----------------------|
|--------5--7------5--7--|-7b8-(7)-5-------------|
|--(2)-7---------7-------|------------7--------2-|
|--(0)-------------------|---------------6-5-3-0-|
|------------------------|-----------------------|
|
|   >
|  +W                      W
|-(15)-------------------|-----------------------|
|------------------------|-----------------------|
|------------------------|-----------------------|
|------------------------|-----------------------|
|------------------------|-----------------------|
|------------------------|-----------------------|


  +E  E E  E  E E E  E    E    E  E  E  E E E E
|-----------------------|-----------------------|
|-----------------------|-----------------------|
|-------9--7------7--5--|---------5--4----------|
|-(2)---7-(7)-----5-(5)-|---------4-(4)---------|
|-(0)-0-------0-0-------|-0----0--------6-5-3-3-|
|-----------------------|-----------------------|
|
| +E  E E  E  E E E  E    E   +E  E  E  E E E E
|-----------------------|-----------------------|
|-----------------------|-----------------------|
|-------5--7------5--7--|-7b8-(7)-5-------------|
|-(2)-7---------7-------|------------7----------|
|-(0)-------------------|---------------6-5-3-3-|
|-----------------------|-----------------------|
|
|  W                      W
|-----------------------|-----------------------|
|-----------------------|-----------------------|
|-----------------------|-----------------------|
|-----------------------|-----------------------|
|-----------------------|-----------------------|
|-----------------------|-----------------------|


  +E  E E  E  E E E  E    E    E  E  E  E E E E
|-----------------------|-----------------------|
|-----------------------|-----------------------|
|-------9--7------7--5--|---------5--4----------|
|-------7-(7)-----5-(5)-|---------4-(4)---------|
|-(3)-3-------0-0-------|-0----0--------6-5-3-5-|
|-----------------------|-----------------------|
|
| +E  E E  E  E E E  E    E   +E  E  E  E E E E
|-----------------------|-----------------------|
|-----------------------|-----------------------|
|-------5--7------5--7--|-7b8-(7)-5-------------|
|-----7---------7-------|------------7----------|
|-(3)-------------------|---------------6-5-3-5-|
|-----------------------|-----------------------|


  +E  E E  E  E E E  E    E    E  E  E  E E E E
|-----------------------|-----------------------|
|-----------------------|-----------------------|
|-------9--7------7--5--|---------5--4----------|
|-------7-(7)-----5-(5)-|---------4-(4)-------2-|
|-(5)-5-------0-0-------|-0----0--------6-5-3-0-|
|-----------------------|-----------------------|
|
| +E  E E  E  E E E  E    E   +E  E  E  E E E E
|-----------------------|-----------------------|
|-----------------------|-----------------------|
|-------5--7------5--7--|-7b8-(7)-5-------------|
|-----7---------7-------|------------7--------2-|
|-(5)-------------------|---------------6-5-3-0-|
|-----------------------|-----------------------|


  +W           E E E E E E E E
|------------|-----------------|
|------------|-----------------|
|------------|-----------------|
|-(2)--------|-x-x-x-x-x-x-x-5-|
|-(0)--------|-x-x-x-x-x-x-x-3-|
|------------|-----------------|
|
| +W           E E E E E E E E
|------------|-----------------|
|------------|-----------------|
|------------|-----------------|
|-(2)--------|---------------5-|
|-(0)--------|-5-6-5-3-5-3-0-3-|
|------------|-----------------|

2nd Chorus:

    +E  E E Q  E E E   +E  E E Q  Q  E
||-------------------|-----------------|
||o------------------|-----------------|
||-------------------|-----------------|
||--(5)-5-5--------7-|-(7)-7-7-------2-|
||o-(3)-3-3-5--5-5-5-|-(5)-5-5-2--5--0-|
||----------3--3-3---|---------0--3----|
|
|   +E  E E Q  E E E   +E  E E Q  Q  E
||-------------------|-----------------|
||o------------------|-----------------|
||-------------------|-----------------|
||--(5)-5-5--------7-|-(7)-7-7-------2-|
||o-(3)-3-3-5--5-5-5-|-(5)-5-5-2--5--0-|
||----------3--3-3---|---------0--3----|


  +E  E E  E  E E E  E    E E E  E  E E E E   3x
|-----------------------|---------------------||
|-----------------------|--------------------o||
|-------9--7------7--5--|-----5--4------------||
|-(2)---7-(7)-----5-(5)-|-----4-(4)-------5---||
|-(0)-0-------0-0-------|-0-0-------0-0-0-3--o||
|-----------------------|---------------------||
|
| +E  E E  E  E E E  E    E E E  E  E E E E   3x
|-----------------------|---------------------||
|-----------------------|--------------------o||
|-----------------------|---------------------||
|-(2)-2-2--2--2-2-2--2--|-2-2-2--2--2-2-2-5---||
|-(0)-0-0--0--0-0-0--0--|-0-0-0--0--0-0-0-3--o||
|-----------------------|---------------------||


  +E  E E Q  E E E   +E  E E Q  Q  E
|------------------|-----------------|-|
|------------------|-----------------|-|
|------------------|-----------------|-|
|-(5)-5-5--------7-|-(7)-7-7-------2-|-|
|-(3)-3-3-5--5-5-5-|-(5)-5-5-2--5--0-|-|
|---------3--3-3---|---------0--3----|-|
|
| +E  E E Q  E E E   +E  E E Q  Q  E
|------------------|-----------------|-|
|------------------|-----------------|-|
|------------------|-----------------|-|
|-(5)-5-5--------7-|-(7)-7-7-------2-|-|
|-(3)-3-3-5--5-5-5-|-(5)-5-5-2--5--0-|-|
|---------3--3-3---|---------0--3----|-|

Break:

    +W                                +W
||----------------------------------|-------------------------------------||
||o---------------------------------|------------------------------------o||
||----------------------------------|-------------------------------------||
||--(2)-----------------------------|-(2)---------------------------------||
||o-(0)-----------------------------|-(0)--------------------------------o||
||----------------------------------|-------------------------------------||
|
|    S  S S S S S S S S S S S S S E    S  S S S S S S S S S S S S S E
||----------------------------------|-------------------------------------||
||o---------------------------------|------------------------------------o||
||--------------------------------2-|-------------------------------2-----||
||------------0-0-2-2-5-5-2-2-0-0---|-----------0-0-2-2-5-5-2-2-0-0-------||
||o--0--0-3-3-----------------------|--0--0-3-3--------------------------o||
||----------------------------------|-------------------------------------||


   S  S  S  S  S  S  S  S  S  S  S  S  S  S  E
|----------------------------------------------|
|----------------------------------------------|
|-------------------------12-12-------------14-|
|-------------12-12-14-14-------14-14-12-12----|
|-12-12-15-15----------------------------------|
|----------------------------------------------|
|
|  S  S  S  S  S  S  S  S  S  S  S  S  S  S  E
|----------------------------------------------|
|----------------------------------------------|
|--------------------------------------------2-|
|--------------0--0--2--2--5--5--2--2--0--0----|
|--0--0--3--3----------------------------------|
|----------------------------------------------|


   S  S  S  S  S  S  S  S  S  S  S  S  S  S  E
|-------------------------------------------------|
|-------------------------------------------------|
|-------------------------12-12-------------14----|
|-------------12-12-14-14-------14-14-12-12-------|
|-12-12-15-15-------------------------------------|
|-------------------------------------------------|
|
|  S  S  S  S  S  S  S  S  S  S  S  S  S  S  E
|-------------------------------------------------|
|-------------------------------------------------|
|--------------------------------------------2----|
|--------------0--0--2--2--5--5--2--2--0--0-------|
|--0--0--3--3-------------------------------------|
|-------------------------------------------------|


   S  S  S  S  S  S  S  S  S  S  S  S  S  S  E
|----------------------------------------------|
|----------------------------------------------|
|-------------------------12-12-------------14-|
|-------------12-12-14-14-------14-14-12-12----|
|-12-12-15-15----------------------------------|
|----------------------------------------------|
|
|  S  S  S  S  S  S  S  S  S  S  S  S  S  S  E
|----------------------------------------------|
|----------------------------------------------|
|--------------------------------------------2-|
|--------------0--0--2--2--5--5--2--2--0--0----|
|--0--0--3--3----------------------------------|
|----------------------------------------------|


   S  S  S  S  S  S  S  S  S  S  S  S  S  S  E
|-------------------------------------------------|
|-------------------------------------------17----|
|-------------------------12-12-------------------|
|-------------12-12-14-14-------14-14-12-12-------|
|-12-12-15-15-------------------------------------|
|-------------------------------------------------|
|
|  S  S  S  S  S  S  S  S  S  S  S  S  S  S  E
|-------------------------------------------------|
|-------------------------------------------------|
|-------------------------------------------------|
|--------------0--0--2--2--5--5--2--2--0--0--2----|
|--0--0--3--3--------------------------------0----|
|-------------------------------------------------|

Solo:

   +E   E  E  E  E  E  E  E    E  E  E  E  E  E  E  E
|---------------------------|-------------------------|
|-(17)-13----13-17-13----13-|-17-13----13-17-13----15-|
|---------14----------14----|-------14----------12----|
|---------------------------|-------------------------|
|---------------------------|-------------------------|
|---------------------------|-------------------------|
|
|  +E   E  E  E  E  E  E  E    E  E  E  E  E  E  E  E
|---------------------------|-------------------------|
|---------------------------|-------------------------|
|---------------------------|-------------------------|
|--(2)--2--2--2--2--2--2--2-|--2--2--2--2--2--2--2--5-|
|--(0)--0--0--0--0--0--0--0-|--0--0--0--0--0--0--0--3-|
|---------------------------|-------------------------|


   +E   E  E  E  E  E  E  E    +E   S  S  E  E  E  E  E  E
|---------------------------|-------------------------------|
|-(15)-13----13-15-13----17-|-(17)-15h17p13-17-13-15-17-----|
|---------12----------12----|---------------------------16--|
|---------------------------|-------------------------------|
|---------------------------|-------------------------------|
|---------------------------|-------------------------------|
|
|  +E   E  E  E  E  E  E  E     E   E  E  E     E  E  E  E
|---------------------------|-------------------------------|
|---------------------------|-------------------------------|
|---------------------------|-------------------------------|
|--(5)--5--5--5--5--5--5--5-|---5---5--5--5-----5--5--5--7--|
|--(3)--3--3--3--3--3--3--3-|---3---3--3--3-----3--3--3--5--|
|---------------------------|-------------------------------|


   +E   E  E  Q    E  S  S  E    E   E  E  Q       +Q     E
|-----------------------------|-----------22b24---(22)--------|
|------20---------17-15-17-15-|-------------------------------|
|-(16)----17-16---------------|-17--16-17----------------14---|
|-----------------------------|-------------------------------|
|-----------------------------|-------------------------------|
|-----------------------------|-------------------------------|
|
|   E   E  E  E E  E  E  E      +E   E  E  E    S   S  E  E E
|-----------------------------|-------------------------------|
|-----------------------------|-------------------------------|
|-----------------------------|-------------------------------|
|---7---7--7--7-7--7--7--8----|-(8)--8--8--8----------------2-|
|---5---5--5--5-5--5--5--6----|-(6)--6--6--6----5---6--5--3-0-|
|-----------------------------|-------------------------------|


   S  S  S  S  S  S  S  S  S  S  S  S  S  S  S  S    E  E  E  H       E
|-------------------------------------------------|-----------------------|
|-------------------------------------------------|-----------------------|
|-17p14h17p14h17p14-------------------------------|-----------------------|
|-------------------17p14h17p14h17p14h17p14h17p14-|-13-12-10----------9---|
|-------------------------------------------------|----------12-----------|
|-------------------------------------------------|-----------------------|
|
|  E     E     E     E     E     E     E     E       E  E  E  E E E E E
|-------------------------------------------------|-----------------------|
|-------------------------------------------------|-----------------------|
|-------------------------------------------------|-----------------------|
|--2-----2-----2-----2-----2-----2-----2-----2----|--2--2--2--2-2-2-2-2---|
|--0-----0-----0-----0-----0-----0-----0-----0----|--0--0--0--0-0-0-0-0---|
|-------------------------------------------------|-----------------------|


  +E  +E     +E  +H        E   +E  +E    +E  +H        E
|----------------------------|---------------------------|
|----------------------------|---------------------------|
|----------------------------|---------------------------|
|-(9)-(9)b10-(9)-(9)-------5-|-(5)-(5)b7-(5)-(5)-------7-|
|----------------------------|---------------------------|
|----------------------------|---------------------------|
|
| +E   E      E   E  E E E E   +E   E     E   E  E E E E
|----------------------------|---------------------------|
|----------------------------|---------------------------|
|----------------------------|---------------------------|
|-(2)--2------2---2--2-2-2-2-|-(2)--2-----2---2--2-2-2-5-|
|-(0)--0------0---0--0-0-0-0-|-(0)--0-----0---0--0-0-0-3-|
|----------------------------|---------------------------|


  +E  +E    +E  +H        E   +E  +E    +E  +H         E
|---------------------------|--------------------------------|
|---------------------------|--------------------------------|
|---------------------------|-------------------------15b17==|
|-(7)-(7)b9-(7)-(7)-------4-|-(4)-(4)b5-(4)-(4)--------------|
|---------------------------|--------------------------------|
|---------------------------|--------------------------------|
|
| +E   E     E   E  E E E E   +E   E     E   E  E E E  E
|---------------------------|--------------------------------|
|---------------------------|--------------------------------|
|---------------------------|--------------------------------|
|-(5)--5-----5---5--5-5-5-5-|-(5)--5-----5---5--5-5-5--7-----|
|-(3)--3-----3---3--3-3-3-3-|-(3)--3-----3---3--3-3-3--5-----|
|---------------------------|--------------------------------|


                                   |--3---|  |--3--|  |--3--|  |--3--|
   +E    S  S  E  E  E  Q    E    +E   E  E  E  E  E  E  E  E  E  E  E
|---------------------------13-|-(13)-12-10-12-10----10----------------|
|------------------------------|------------------13----13-12-13-12-10-|
|-(15)r-15-14-12-15-14-12------|---------------------------------------|
|------------------------------|---------------------------------------|
|------------------------------|---------------------------------------|
|------------------------------|---------------------------------------|
|
|  +E    E  E  E  E  E  E E       +E   E  E  E  E  Q     E
|------------------------------|---------------------------------------|
|------------------------------|---------------------------------------|
|------------------------------|---------------------------------------|
|--(7)---7--7--7--7--7--7-8----|--(8)--8--8--8--7--5-----2-------------|
|--(5)---5--5--5--5--5--5-6----|--(6)--6--6--6--5--3-----0-------------|
|------------------------------|---------------------------------------|


   |--3--|  |--3--|  |--3--|  |--3--|
   E  E  E  E  E  E  E  E  E  E  E  E    H           Q.     E
|-15-13-12-13-12----13----------------|-17b19-------15--------|
|----------------15----15-13-15-13-12-|-----------------------|
|-------------------------------------|-----------------------|
|-------------------------------------|---------------------5-|
|-------------------------------------|---------------------3-|
|-------------------------------------|-----------------------|
|
|  E  E  E  E  E  E  E  E                E    E E E  E  E E E
|-------------------------------------|-----------------------|
|-------------------------------------|-----------------------|
|-------------------------------------|-----------------------|
|--2--2--2--2--2--2--2--2-------------|--2----2-2-2--2--2-2-5-|
|--0--0--0--0--0--0--0--0-------------|--0----0-0-0--0--0-0-3-|
|-------------------------------------|-----------------------|

3rd Chorus:

    +E  E E Q  E E E   +E  E E Q  Q  E
||-------------------|-----------------|
||o------------------|-----------------|
||-------------------|-----------------|
||--(5)-5-5--------7-|-(7)-7-7-------2-|
||o-(3)-3-3-5--5-5-5-|-(5)-5-5-2--5--0-|
||----------3--3-3---|---------0--3----|
|
|   +E  E E Q  E E E   +E  E E Q  Q  E
||-------------------|-----------------|
||o------------------|-----------------|
||-------------------|-----------------|
||--(5)-5-5--------7-|-(7)-7-7-------2-|
||o-(3)-3-3-5--5-5-5-|-(5)-5-5-2--5--0-|
||----------3--3-3---|---------0--3----|


  +E  E E  E  E E E  E    E E E  E  E E E E   3x
|-----------------------|---------------------||
|-----------------------|--------------------o||
|-------9--7------7--5--|-----5--4------------||
|-(2)---7-(7)-----5-(5)-|-----4-(4)-------5---||
|-(0)-0-------0-0-------|-0-0-------0-0-0-3--o||
|-----------------------|---------------------||
|
| +E  E E  E  E E E  E    E E E  E  E E E E   3x
|-----------------------|---------------------||
|-----------------------|--------------------o||
|-----------------------|---------------------||
|-(2)-2-2--2--2-2-2--2--|-2-2-2--2--2-2-2-5---||
|-(0)-0-0--0--0-0-0--0--|-0-0-0--0--0-0-0-3--o||
|-----------------------|---------------------||


  +E  E E Q  E E E   +E  E E Q  Q  E   +W           +H.      +E  E
|------------------|-----------------|------------|----------------|
|------------------|-----------------|------------|----------------|
|------------------|-----------------|------------|----------------|
|-(5)-5-5--------7-|-(7)-7-7-------2-|-(2)--------|-(2)------(2)-5-|
|-(3)-3-3-5--5-5-5-|-(5)-5-5-2--5--0-|-(0)--------|-(0)------(0)-3-|
|---------3--3-3---|---------0--3----|------------|----------------|
|
| +E  E E Q  E E E   +E  E E Q  Q  E   +W           +H.      +E  E
|------------------|-----------------|------------|----------------|
|------------------|-----------------|------------|----------------|
|------------------|-----------------|------------|----------------|
|-(5)-5-5--------7-|-(7)-7-7-------2-|-(2)--------|-(2)------(2)-5-|
|-(3)-3-3-5--5-5-5-|-(5)-5-5-2--5--0-|-(0)--------|-(0)------(0)-3-|
|---------3--3-3---|---------0--3----|------------|----------------|

4th Chorus:

  +E  E E Q  E E E   +E  E E Q  Q  E
|------------------|-----------------|
|------------------|-----------------|
|------------------|-----------------|
|-(5)-5-5--------7-|-(7)-7-7-------2-|
|-(3)-3-3-5--5-5-5-|-(5)-5-5-2--5--0-|
|---------3--3-3---|---------0--3----|
|
| +E  E E Q  E E E   +E  E E Q  Q  E
|------------------|-----------------|
|------------------|-----------------|
|------------------|-----------------|
|-(5)-5-5--------7-|-(7)-7-7-------2-|
|-(3)-3-3-5--5-5-5-|-(5)-5-5-2--5--0-|
|---------3--3-3---|---------0--3----|


  +E  E E  E  E E  E  E     Q.        E  E  Q.
|------------------------|-------------------------|
|--------------------10--|-12b13-----10--8-10------|
|---------------9-12-----|-------------------------|
|-(2)-2-2--2--2----------|-------------------------|
|-(0)-0-0--0--0----------|-------------------------|
|------------------------|-------------------------|
|
| +E  E E  E  E E  E  E     E    E E  E  E  E  E E
|------------------------|-------------------------|
|------------------------|-------------------------|
|-------9--7-------7--5--|---------5--4------------|
|-(2)---7-(7)------5-(5)-|---------4-(4)---------5-|
|-(0)-0-------0-0--------|--0----0-------0--0--0-3-|
|------------------------|-------------------------|


   +H        H          H.          E E
|--------------------|------------------|
|-(10)---------------|------------------|
|--------------------|------------------|
|--------------------|----------------2-|
|--------------------|----------------0-|
|--------------------|------------------|
|
|  +E  E E Q   E E E   +E  E E Q  Q   E
|--------------------|------------------|
|--------------------|------------------|
|--------------------|------------------|
|--(5)-5-5---------7-|-(7)-7-7--------2-|
|--(3)-3-3-5---5-5-5-|-(5)-5-5-2--5---0-|
|----------3---3-3---|---------0--3-----|


  +E  E E  E  E E  E  E     Q.        E  E  Q.
|------------------------|-------------------------|
|--------------------10--|-12b14r====10--8-15------|
|---------------9-12-----|-------------------------|
|-(2)-2-2--2--2----------|-------------------------|
|-(0)-0-0--0--0----------|-------------------------|
|------------------------|-------------------------|
|
| +E  E E  E  E E  E  E     E    E E  E  E  E  E E
|------------------------|-------------------------|
|------------------------|-------------------------|
|-------9--7-------7--5--|---------5--4------------|
|-(2)---7-(7)------5-(5)-|---------4-(4)---------5-|
|-(0)-0-------0-0--------|--0----0-------0--0--0-3-|
|------------------------|-------------------------|


   +H        H          H.          E E
|--------------------|------------------|
|-(15)---------------|------------------|
|--------------------|------------------|
|--------------------|----------------2-|
|--------------------|----------------0-|
|--------------------|------------------|
|
|  +E  E E Q   E E E   +E  E E Q  Q   E
|--------------------|------------------|
|--------------------|------------------|
|--------------------|------------------|
|--(5)-5-5---------7-|-(7)-7-7--------2-|
|--(3)-3-3-5---5-5-5-|-(5)-5-5-2--5---0-|
|----------3---3-3---|---------0--3-----|


  +E  E E  E  E E  E  E     Q.        E  E  Q.
|------------------------|-------------------------|
|--------------------10--|-12b14r====10--8-10------|
|---------------9-12-----|-------------------------|
|-(2)-2-2--2--2----------|-------------------------|
|-(0)-0-0--0--0----------|-------------------------|
|------------------------|-------------------------|
|
| +E  E E  E  E E  E  E     E    E E  E  E  E  E E
|------------------------|-------------------------|
|------------------------|-------------------------|
|-------9--7-------7--5--|---------5--4------------|
|-(2)---7-(7)------5-(5)-|---------4-(4)---------5-|
|-(0)-0-------0-0--------|--0----0-------0--0--0-3-|
|------------------------|-------------------------|


   +H        H          W
|--------------------|-----------------|----|
|-(10)---------------|-----------------|----|
|--------------------|-----------------|----|
|--------------------|-----------------|----|
|--------------------|-----------------|----|
|--------------------|-----------------|----|
|
|   E  E E Q   E E E   +E  E E Q  Q  E
|--------------------|-----------------|----|
|--------------------|-----------------|----|
|--------------------|-----------------|----|
|---5--5-5---------7-|-(7)-7-7-------2-|----|
|---3--3-3-5---5-5-5-|-(5)-5-5-2--5--0-|----|
|----------3---3-3---|---------0--3----|----|

            
            
Suggest correction
Creating personal tab
Creating personal tab
You can edit any tab online and save it as your Personal.

You can edit, replace or remove any tab part or add personal notes – all changes will be seen only by you.

Personal tabs can be accessed anytime from any device, even offline.
Learn more »
Give kudos to tab author, rate the tab!
1 2 3 4 5
comments
print report bad tab
guest
Wanna post a correction for this tab? Suggest correction