Oops, an error
Loading. Please wait.

Shout bass

version 1
version 1

Whole song

Interactive

2,188 views 3 this week
no commentswrite comment
1 2 3 4 5
3 more votes to show rating
add to favorites
×
Save as Personal and add changes to this tab that will be seen only by you. Learn more ›
×
You can save this tab as Personal to edit and correct it or add notes. All changes will be seen only by you. Learn more »
launch autoscroll
font size
0
reset
guitar tuner
edit
Autoscroll
slow
fast
+/-
esc
set tempo
stop
Author
Difficulty
Black Tide: Shout
Standard Tuning: E A D G

Verse: X4

G--------------------------------------------------------------------------------------|
D--------------------------------------------------------------------------------------|
A---0-2-0-00-000-00-000-3-33-3-2-2-0---------0-2-00-000-00-00-3-33-3-2-0--------0-2-0--|
E--3------------3--------------------3-33-0-3-------------3-------------3-33-0-3-------|

Chorus Part 1 X1

G--------------------------------7-------------------------3>7-5-5----------|
D-----------------------------7-9--9-7-9------------------------7-7-6-5-0---|
A--0-0-00------0-3-33-00-5-7-9----------0-0-00--------0-33---------------0--|
E--------3-33-3-------------------------------3-33-3------------------------|

Chorus Part 2 X1

G--------------------------------5--------------------------------|
D-------------------------------5--55-7---------------------------|
A--0-0-00-------0-33-33-00-3>5-7---------0-0-00-----0-3-3--0-5-5--|
E--------3-33-3--------------------------------3-33-3-------------|

2nd Verse X4

G-------------------------------------------------------------------------|
D-------------------------------------------------------------------------|
A--0-00-000-00-000-3-33-3-2-0----------0-2-00-000-00-000-3-33-3-2-0-------|
E-------------3---------------3-33-0-3-----------3-----------------3-3-3--|

Chorus X2

G----------------------------------7-------------------------3>7-5-5----------|
D-------------------------------7-9--9-7-9------------------------7-7-6-5-0---|
A--0-0-00-------0-3-33-00--5-7-9----------0-0-00--------0-33---------------0--|
E--------3-33-3----------------------------------3-33-3-----------------------|

Solo A X2

G-----------------------------------------------------------------------|
D-----------------------------------------------------------------------|
A--0-00-00-00-0>5-55-5-----------------0-00-00-0>5-55-5-----------------|
E---------------------11-1111-33-3333------------------11-1111-33-3333--|

Solo B X2

G-----------------------------------------------------------------------------------------------|
D-----------------------------------------------------------------------------------------------|
A--00000000----------33333333-5555-3-6-5-3-6-5-3-00000000----------33333333-5555-3-6-5-3-6-5-3--|
E-----------33333333--------------------------------------33333333------------------------------|

Chorus X2

G--------------------------------7-------------------------3>7-5-5----------|
D-----------------------------7-9--9-7-9------------------------7-7-6-5-0---|
A--0-0-00------0-3-33-00-5-7-9----------0-0-00--------0-33---------------0--|
E--------3-33-3-------------------------------3-33-3------------------------|

Breakdown

G-------------------------------------------------------------------|
D-------------------------------------------------------------------|
A--00000000---------3333333-55555555-0000000---------3-3-3-3-3-3-5--|
E----------33333333--------------------------3333333----------------|

>Slide

And thats it pretty easy! Rock ou Dudes!!

            
            
Suggest correction
Creating personal tab
Creating personal tab
You can edit any tab online and save it as your Personal.

You can edit, replace or remove any tab part or add personal notes – all changes will be seen only by you.

Personal tabs can be accessed anytime from any device, even offline.
Learn more »
Give kudos to tab author, rate the tab!
1 2 3 4 5
comments
print report bad tab
guest
You may want to rate the tab now too:
select rating
Wanna post a correction for this tab? Suggest correction