Oops, an error
Loading. Please wait.

Shout Tab

version 1
version 1

Whole song

Interactive

31,782 views 9 this week
8 commentsread comments
1 2 3 4 5
accurate
x 4
add to favorites
launch autoscroll
font size
0
reset
how to read this tab
guitar tuner
Tab Pro tools
  • play this tab
  • loop segment
  • change instrument
  • show fretboard
  • metronome
×
Best way to learn
"Shout"
Autoscroll
slow
fast
+/-
esc
set tempo
stop
Contributor
Difficulty
Tuning
intermediate
C F A# D# G C
NO SOLO!!! Sorry, only been playing for a year.
Not really got an ear for solos yet, if someone
else wants to complete this tab with the solo, be my guest.

This is "Shout" by Black Tide.
It is pretty much just what Alex Nunez (Rhythm Guitar)
does during the song, but it is enough to get you
started i beleive. So here we go:

Intro: (Kind of faded)
|--------------------------|
|--------------------------|
|--------------------------|
|--2~---2----5~------------|  (x2)
|--0~---0----3~-2-0-5~-0-2-|
|----3^-------------3~-----|

Verse: (Same thing as intro, but lots of randonm palm muting)
|----------------------------------------|
|----------------------------------------|
|----------------------------------------|
|--22x2x----2xx2x---5~-5-----------------|  (x3)
|--00x0x----0xx0x---3~-3-2-0-5-5------2--|
|--------3^------------------3-3--3-5----|

Then:
|-------------------------------------|
|-------------------------------------|
|-------------------------------------|
|--22x2x----2xx2x---5~-5--------------|  (x1)
|--00x0x----0xx0x---3~-3-2-0-5-5-5-5-5|
|--------3^------------------3-3-3-3-3|

Chorus:
|-------------------------------------|
|-------------------------------------|
|-------------------------------------|
|--2~-2-x----------5~5~xxx-5-7-7-7/---|  (x4)
|--0~-0-x--5~x55xx-3~3~xxx-3-5-5-5/---|
|----------3~x33xx--------------------|

Verse:
|-----------------------------------------|
|-----------------------------------------|
|-----------------------------------------|
|--22x2x----2xx2x---5~-5------------------|  (x4)
|--00x0x----0xx0x---3~-3-2-0-5-5-------2--|
|--------3^------------------3-3---3-5----|

Then:
|-------------------------------------|
|-------------------------------------|
|-------------------------------------|
|--22x2x----2xx2x---5~-5--------------|  (x1)
|--00x0x----0xx0x---3~-3-2-0-5-5-5-5-5|
|--------3^------------------3-3-3-3-3|

Solo Rhythm: (I'm Getting Lazy, so just put in the stops where he stops)
|----------------------------|
|----------------------------|
|----------------------------|
|-2--2--2--2-----7--7--------|    (As many times as needed)
|-0--0--0--0-----5--5--------|
|----------------------------|

Then they do this cool little Iron Maiden type thing:
|----------------------------|
|----------------------------|
|----------------------------|
|----------xx5-xx5-----------|     (As many times as needed)
|--xx5-xx5-xx3-xx3-----------|
|--xx3-xx3-------------------|

Then they do the chorus but they palm mute it like the Iron Maiden part. The best i 
do. Enjoy.
comments
print report bad tab
8 comments total. Showing first comments.
+1 reply
Drop_D_Killa101 wrote on May 19 2008, 06:19 pm

I dont know why it did it. but it is not in C standard, it is in D standard.

+1 reply
_InsanitY_ wrote on May 20 2008, 06:06 am

thought so... black tide have most of their songs in d standard

+1 reply
Drop_D_Killa101 wrote on May 20 2008, 07:55 pm

ya, i could have sworn i put D standard, but whatever.

By the way. I will have lots more tabs up soon, i have pretty much tabbed the whole album except for enterprise. so i will have those tabs up soon, just give me some time.

PLEASE RATE!

I want to post or [tab]
guest
You may want to rate the tab now too:
select rating
Please do not post tabs as comments. Select "correction" instead!