Oops, an error
Loading. Please wait.

Show Me The Way tab

version 1
version 1

Whole song

Interactive

22,405 views 3 this week
20 commentsread comments
1 2 3 4 5
x 13
add to favorites
×
Save as Personal and add changes to this tab that will be seen only by you. Learn more ›
×
You can save this tab as Personal to edit and correct it or add notes. All changes will be seen only by you. Learn more »
launch autoscroll
font size
0
reset
how to read this tab
guitar tuner
edit
Autoscroll
slow
fast
+/-
esc
set tempo
stop
Here's the whole song
I know it's long, but if you're gonna print it
I'd just copy and paste the riffs i wanted onto Microsoft Word
and then print

(i get alotta complaints, but at least my tabs are complete) 

It's D standard tuning (NOT drop D)

email: ewlord-1492@hotmail.com
email me if you want the powertab
 

Gtr I (D G C F A D) - 'Untitled'
Gtr II (D G C F A D) - 'Untitled'


Intro:
  Q=182
 4/4
  Gtr I
  Q  E E E E E E   Q  E E E E E E   Q  E E E E E E   Q  E E Q  E E
|----------------|----------------|----------------|----------------|
|----------------|----------------|----------------|----------------|
|----------------|----------------|----------------|----------------|
|----------------|----------------|----------------|----------------|
|-2------------5-|-2--------7-5---|-2------------5-|-8--8---5--5----|
|-0--0-3-0-5-7---|-0--0-3-0-----7-|-0--0-3-0-5-7---|-6--6---3--3----|
|
| Gtr II
| W                W                W                Q  E E Q  E E
|----------------|----------------|----------------|----------------|
|----------------|----------------|----------------|----------------|
|----------------|----------------|----------------|----------------|
|----------------|----------------|----------------|----------------|
|----------------|----------------|----------------|-8--8---5--5----|
|----------------|----------------|----------------|-6--6---3--3----|


  Q  E E E E E E    Q   E E E E E E    Q   E E E E E E   Q  E E Q  E E
|----------------|------------------|------------------|---------------|
|----------------|------------------|------------------|---------------|
|----------------|------------------|------------------|---------------|
|----------------|------------------|------------------|---------------|
|-2------------5-|--2---------7-5---|--2-------------5-|-8--8---5--5---|
|-0--0-3-0-5-7---|--0---0-3-0-----7-|--0---0-3-0-5-7---|-6--6---3--3---|
|
| W                +W                 +W                 Q  E E Q  E E
|----------------|------------------|------------------|---------------|
|----------------|------------------|------------------|---------------|
|----------------|------------------|------------------|---------------|
|----------------|------------------|------------------|---------------|
|-2--------------|-(2)--------------|-(2)--------------|-8--8---5--5---|
|-0--------------|-(0)--------------|-(0)--------------|-6--6---3--3---|


  Q  E E E E E E   Q  E E E E E E   Q  E E E E E E   Q  E E Q  E E
|----------------|----------------|----------------|---------------|
|----------------|----------------|----------------|---------------|
|----------------|----------------|----------------|---------------|
|----------------|----------------|----------------|---------------|
|-2------------5-|-2--------7-5---|-2------------5-|-8--8---5--5---|
|-0--0-3-0-5-7---|-0--0-3-0-----7-|-0--0-3-0-5-7---|-6--6---3--3---|
|
| Q  E E E E E E   Q  E E E E E E   Q  E E E E E E   Q  E E Q  E E
|----------------|----------------|----------------|---------------|
|----------------|----------------|----------------|---------------|
|----------------|----------------|----------------|---------------|
|----------------|----------------|----------------|---------------|
|-2------------5-|-2--------7-5---|-2------------5-|-8--8---5--5---|
|-0--0-3-0-5-7---|-0--0-3-0-----7-|-0--0-3-0-5-7---|-6--6---3--3---|


1st Verse:

    Q  E E E E E E   E E E E E E E E   Q  E E E E E E   E E E E E E E E
||-----------------|-----------------|----------------|------------------|
||o----------------|-----------------|----------------|------------------|
||-----------------|-----------------|----------------|------------------|
||-------5-----7---|---8-----7---5---|------5-----7---|---8-----7---5----|
||o-7--7---7-7---7-|-7---7-7---7---7-|-5--5---5-5---5-|-5---5-5---5---5--|
||-----------------|-----------------|----------------|------------------|
|
|   W                W                 W                W
||-----------------|-----------------|----------------|------------------|
||o----------------|-----------------|----------------|------------------|
||-----------------|-----------------|----------------|------------------|
||-----------------|-----------------|----------------|------------------|
||o----------------|-----------------|----------------|------------------|
||-----------------|-----------------|----------------|------------------|


  Q  E E E E E E   Q  E E E E E E   Q  E E E E E E   Q  E E Q  E E
|----------------|----------------|----------------|----------------||
|----------------|----------------|----------------|---------------o||
|----------------|----------------|----------------|----------------||
|----------------|----------------|----------------|----------------||
|-2------------5-|-2--------7-5---|-2------------5-|-8--8---5--5---o||
|-0--0-3-0-5-7---|-0--0-3-0-----7-|-0--0-3-0-5-7---|-6--6---3--3----||
|
| Q  E E E E E E   Q  E E E E E E   Q  E E E E E E   Q  E E Q  E
|----------------|----------------|----------------|----------------||
|----------------|----------------|----------------|---------------o||
|----------------|----------------|----------------|----------------||
|----------------|----------------|----------------|----------------||
|-2------------5-|-2--------7-5---|-2------------5-|-8--8---5--5---o||
|-0--0-3-0-5-7---|-0--0-3-0-----7-|-0--0-3-0-5-7---|-6--6---3--3----||

1st Pre Chorus

   W                 W
|-----------------|-----------------|
|-----------------|-----------------|
|-12--------------|-14--------------|
|-----------------|-----------------|
|-----------------|-----------------|
|-----------------|-----------------|
|
|  Q  E E E E E E    Q  E E E E E E
|-----------------|-----------------|
|-----------------|-----------------|
|-----------------|-----------------|
|-----------------|-----------------|
|--5--5-5-5-------|--9--9-9-9---5-6-|
|--3--3-3-3-3-5-6-|--7--7-7-7-7-----|


   Q      Q       H          +Q   E  S  S  S  S  Q  E
|-------------------------|---------------------------|
|-------------------------|---------------------12----|
|-14b16--14b16r==12-------|-(12)----14-12-12-12-12--9-|
|-------------------------|---------------------------|
|-------------------------|---------------------------|
|-------------------------|---------------------------|
|
|  Q      E    E  E E E E     Q   E  S  S  S  S  Q  E
|-------------------------|---------------------------|
|-------------------------|---------------------------|
|-------------------------|---------------------------|
|-------------------------|---------------------------|
|--2--------------------5-|---2---2--------------2----|
|--0------0----3--0-5-7---|---0---0--0--0--0--0--0--0-|


   H       +E   E  E E    H       +E   E  E  E
|----------------------|-----------------------|
|----------------------|--------------------15-|
|-12------(12)-14-12---|-16------(16)-14-16----|
|----------------------|-----------------------|
|----------------------|-----------------------|
|----------------------|-----------------------|
|
|  Q  E E   E   E  E E    Q  E E   E   E  E  E
|----------------------|-----------------------|
|----------------------|-----------------------|
|----------------------|-----------------------|
|----------------------|-----------------------|
|--5--5-5---5----------|--9--9-9---9------5--6-|
|--3--3-3---3---3--5-6-|--7--7-7---7---7-------|


    W                 E S S S  S S S S S S S S S  E
|-------------------|--------------------------------|
|-[17]--------------|--------------------------5-[3]-|
|-------------------|------------2-------2-3-4-------|
|-------------------|---5-2-2--2---2-2-2-------------|
|-------------------|--------------------------------|
|-------------------|--------------------------------|
|
|   Q   E E E E E E   E E   H.
|-------------------|--------------------------------|
|-------------------|--------------------------------|
|-------------------|--------------------------------|
|-------------------|--------------------------------|
|---2-------------5-|-2------------------------------|
|---0---0-3-5-6-7---|-0------------------------------|


1st Chorus

     Q   E  E E  E  E E    Q   E  E E  E  E E
||----------------------|---------------------|
||o---------------------|---------------------|
||--12--12-11---12-11---|-12--12-11---12-11---|
||----------------------|---------------------|
||o-10--10--9---10--9---|-10--10--9---10--9---|
||----------------------|---------------------|
|
|    Q   E  E E  E  E E    Q   E  E E  E  E E
||----------------------|---------------------|
||o---------------------|---------------------|
||----------------------|---------------------|
||----------------------|---------------------|
||o--2---2--2-2--2--2-2-|--2----------------5-|
||---0---0--0-0--0--0-0-|--0---0--3-0--5--7---|


   Q   E  E E  E  E E    Q   E  E E  E  E  E
|---------------------|-----------------------|
|---------------------|-----------------------|
|-14--14-12---14-12---|-16--16-14---16-14-12--|
|---------------------|-----------------------|
|-12--12-10---12-10---|-14--14-12---14-12-10--|
|---------------------|-----------------------|
|
|  Q   E  E E  E  E E    Q   E  E E  E  E  E
|---------------------|-----------------------|
|---------------------|-----------------------|
|---------------------|-----------------7--9--|
|-----------------5-7-|--7---7--7-7--9--------|
|--5---5--5-5--7------|--5---5--5-5-----------|
|--3---3--3-3---------|-----------------------|


   Q   E  E E  E  E E    Q   E  E E  E  E E
|---------------------|---------------------|
|---------------------|---------------------|
|-12--12-11---12-11---|-12--12-11---12-11---|
|---------------------|---------------------|
|-10--10--9---10--9---|-10--10--9---10--9---|
|---------------------|---------------------|
|
|  Q   E  E E  E  E E    Q   E  E E  E  E E
|---------------------|---------------------|
|---------------------|---------------------|
|---------------------|---------------------|
|---------------------|---------------------|
|--7---2--2-2--2--2-2-|--2----------------5-|
|------0--0-0--0--0-0-|--0---0--3-0--5--7---|


   Q   E  E E  E  E E    Q   E  E E  E  E  E
|---------------------|-----------------------||
|---------------------|----------------------o||
|-14--14-12---14-12---|-16--16-14---16-14-12--||
|---------------------|-----------------------||
|-12--12-10---12-10---|-14--14-12---14-12-10-o||
|---------------------|-----------------------||
|
|  Q   E  E E  E  E E    Q   E  E E  E  E  E
|---------------------|-----------------------||
|---------------------|----------------------o||
|---------------------|-----------------7--9--||
|-----------------5-7-|--7---7--7-7--9--------||
|--5---5--5-5--7------|--5---5--5-5----------o||
|--3---3--3-3---------|-----------------------||


  W          +W
|----------|--------|
|----------|--------|
|----------|--------|
|-2--------|-(2)----|
|-0--------|-(0)----|
|----------|--------|
|
| W          +W
|----------|--------|
|----------|--------|
|----------|--------|
|-2--------|-(2)----|
|-0--------|-(0)----|
|----------|--------|

Interlude:

  Q  E E E E E E   Q  E E E E E E   Q  E E E E E E   E E E E E E E E
|----------------|----------------|----------------|-----------------|
|----------------|----------------|----------------|-----------------|
|----------------|----------------|----------------|-----------------|
|----------------|----------------|----------------|-----------------|
|-2------------5-|-2--------7-5---|-2------------5-|-8-----------8-5-|
|-0--0-3-0-5-7---|-0--0-3-0-----7-|-0--0-3-0-5-7---|-6-----------6-3-|
|
| Q  E E E E E E   Q  E E E E E E   Q  E E E E E E   E E E E E E E E
|----------------|----------------|----------------|-----------------|
|----------------|----------------|----------------|-----------------|
|----------------|----------------|----------------|-----------------|
|----------------|----------------|----------------|-----------------|
|-2------------5-|-2--------7-5---|-2------------5-|-8-----------8-5-|
|-0--0-3-0-5-7---|-0--0-3-0-----7-|-0--0-3-0-5-7---|-6-----------6-3-|

2nd Verse:

    Q  E E E E E E   E E E E E E E E   Q   E E E E E E   E  E E E E E E E
||-----------------|-----------------|-----------------|--------------------||
||o----------------|-----------------|-----------------|-------------------o||
||-----------------|-----------------|-----------------|--------------------||
||-------5-----7---|---8-----7---5---|-------5-----7---|----8-----7---5-----||
||o-7--7---7-7---7-|-7---7-7---7---7-|-5---5---5-5---5-|-5----5-5---5---5--o||
||-----------------|-----------------|-----------------|--------------------||
|
|   Q  E E E E E E   E E E E E E E E   Q.    E E E E E   Q.     E E E E E
||-----------------|-----------------|-----------------|--------------------||
||o----------------|-----------------|-----------------|-------------------o||
||-----------------|-----------------|-----------------|--------------------||
||-----------------|-----------------|-7-----7-7-7-7---|--------------------||
||o-2--2-2-2-2-2-2-|-2-2-2-2-2-2-2-2-|-5-----5-5-5-5---|-7------7-7--------o||
||--0--0-0-0-0-0-0-|-0-0-0-0-0-0-0-0-|-----------------|-5------5-5-5-6-7---||

2nd Pre Chorus

   W                 W
|-----------------|-----------------|
|-----------------|-----------------|
|-12--------------|-14--------------|
|-----------------|-----------------|
|-----------------|-----------------|
|-----------------|-----------------|
|
|  Q  E E E E E E    Q  E E E E E E
|-----------------|-----------------|
|-----------------|-----------------|
|-----------------|-----------------|
|-----------------|-----------------|
|--5--5-5-5-------|--9--9-9-9---5-6-|
|--3--3-3-3-3-5-6-|--7--7-7-7-7-----|


   Q      Q       H          +Q   E  S  S  S  S  Q  E
|-------------------------|---------------------------|
|-------------------------|---------------------12----|
|-14b16--14b16r==12-------|-(12)----14-12-12-12-12--9-|
|-------------------------|---------------------------|
|-------------------------|---------------------------|
|-------------------------|---------------------------|
|
|  Q      E    E  E E E E     Q   E  S  S  S  S  Q  E
|-------------------------|---------------------------|
|-------------------------|---------------------------|
|-------------------------|---------------------------|
|-------------------------|---------------------------|
|--2--------------------5-|---2---2--------------2----|
|--0------0----3--0-5-7---|---0---0--0--0--0--0--0--0-|


   H       +E   E  E E    H       +E   E  E  E
|----------------------|-----------------------|
|----------------------|--------------------15-|
|-12------(12)-14-12---|-16------(16)-14-16----|
|----------------------|-----------------------|
|----------------------|-----------------------|
|----------------------|-----------------------|
|
|  Q  E E   E   E  E E    Q  E E   E   E  E  E
|----------------------|-----------------------|
|----------------------|-----------------------|
|----------------------|-----------------------|
|----------------------|-----------------------|
|--5--5-5---5----------|--9--9-9---9------5--6-|
|--3--3-3---3---3--5-6-|--7--7-7---7---7-------|


    W                 E S S S  S S S S S S S S S  E
|-------------------|--------------------------------|
|-[17]--------------|--------------------------5-[3]-|
|-------------------|------------2-------2-3-4-------|
|-------------------|---5-2-2--2---2-2-2-------------|
|-------------------|--------------------------------|
|-------------------|--------------------------------|
|
|   Q   E E E E E E   E E   H.
|-------------------|--------------------------------|
|-------------------|--------------------------------|
|-------------------|--------------------------------|
|-------------------|--------------------------------|
|---2-------------5-|-2------------------------------|
|---0---0-3-5-6-7---|-0------------------------------|


2nd Chorus

     Q   E  E E  E  E E    Q   E  E E  E  E E
||----------------------|---------------------|
||o---------------------|---------------------|
||--12--12-11---12-11---|-12--12-11---12-11---|
||----------------------|---------------------|
||o-10--10--9---10--9---|-10--10--9---10--9---|
||----------------------|---------------------|
|
|    Q   E  E E  E  E E    Q   E  E E  E  E E
||----------------------|---------------------|
||o---------------------|---------------------|
||----------------------|---------------------|
||----------------------|---------------------|
||o--2---2--2-2--2--2-2-|--2----------------5-|
||---0---0--0-0--0--0-0-|--0---0--3-0--5--7---|


   Q   E  E E  E  E E    Q   E  E E  E  E  E
|---------------------|-----------------------|
|---------------------|-----------------------|
|-14--14-12---14-12---|-16--16-14---16-14-12--|
|---------------------|-----------------------|
|-12--12-10---12-10---|-14--14-12---14-12-10--|
|---------------------|-----------------------|
|
|  Q   E  E E  E  E E    Q   E  E E  E  E  E
|---------------------|-----------------------|
|---------------------|-----------------------|
|---------------------|-----------------7--9--|
|-----------------5-7-|--7---7--7-7--9--------|
|--5---5--5-5--7------|--5---5--5-5-----------|
|--3---3--3-3---------|-----------------------|


   Q   E  E E  E  E E    Q   E  E E  E  E E
|---------------------|---------------------|
|---------------------|---------------------|
|-12--12-11---12-11---|-12--12-11---12-11---|
|---------------------|---------------------|
|-10--10--9---10--9---|-10--10--9---10--9---|
|---------------------|---------------------|
|
|  Q   E  E E  E  E E    Q   E  E E  E  E E
|---------------------|---------------------|
|---------------------|---------------------|
|---------------------|---------------------|
|---------------------|---------------------|
|--7---2--2-2--2--2-2-|--2----------------5-|
|------0--0-0--0--0-0-|--0---0--3-0--5--7---|


   Q   E  E E  E  E E    Q   E  E E  E  E  E
|---------------------|-----------------------||
|---------------------|----------------------o||
|-14--14-12---14-12---|-16--16-14---16-14-12--||
|---------------------|-----------------------||
|-12--12-10---12-10---|-14--14-12---14-12-10-o||
|---------------------|-----------------------||
|
|  Q   E  E E  E  E E    Q   E  E E  E  E  E
|---------------------|-----------------------||
|---------------------|----------------------o||
|---------------------|-----------------7--9--||
|-----------------5-7-|--7---7--7-7--9--------||
|--5---5--5-5--7------|--5---5--5-5----------o||
|--3---3--3-3---------|-----------------------||


  Q  E E E E E E    E E E  E E E  Q
|----------------|-------------------|
|----------------|-------------------|
|----------------|-12-----12-----12--|
|----------------|-------------------|
|-2--2-2-2-2-2-2-|-10-----10-----10--|
|-0--0-0-0-0-0-0-|----0-0----0-0-----|
|
| Q  E E E E E E    E E E  E E E  Q
|----------------|-------------------|
|----------------|-------------------|
|----------------|-12-----12-----12--|
|----------------|-------------------|
|-2--2-2-2-2-2-2-|-10-----10-----10--|
|-0--0-0-0-0-0-0-|----0-0----0-0-----|


Breakdown:

    E E E E E E E E   E E E E E Q.     E E E E E E E E   E E E E  E  Q.
||------------------|----------------|-----------------|-------------------|
||o-----------------|----------------|-----------------|-------------------|
||------------------|----------------|-----------------|---------14-12-----|
||------------------|----------------|-----------------|-------------------|
||o-----------------|---------7-5----|-----------------|-7-5---------------|
||--3-0-0-0-5-0-0-0-|-3-0-0-0--------|-3-0-0-0-5-0-0-0-|-----7-0-----------|
|
|   E E E E E E E E   E E E E E Q.     E E E E E E E E   E E E E  E  Q.
||------------------|----------------|-----------------|-------------------|
||o-----------------|----------------|-----------------|-------------------|
||------------------|----------------|-----------------|-------------------|
||------------------|----------------|-----------------|-------------------|
||o-----------------|---------7-5----|-----------------|-7-5---------------|
||--3-0-0-0-5-0-0-0-|-3-0-0-0--------|-3-0-0-0-5-0-0-0-|-----7-6--5--3-----|


  E E E E E E E E   E E E E E Q.     E E E E E E E E   E E E E E E E E
|-----------------|----------------|-----------------|------------------||
|-----------------|----------------|-----------------|-----------------o||
|-----------------|----------------|-----------------|------------------||
|-----------------|----------------|-----------------|------------------||
|-----------------|---------7-5----|-----------------|-7-5-------------o||
|-3-0-0-0-5-0-0-0-|-3-0-0-0--------|-3-0-0-0-5-0-0-0-|-----7-6-5-3-5-0--||
|
| E E E E E E E E   E E E E E Q.     E E E E E E E E   E E E E E E E E
|-----------------|----------------|-----------------|------------------||
|-----------------|----------------|-----------------|-----------------o||
|-----------------|----------------|-----------------|------------------||
|-----------------|----------------|-----------------|------------------||
|-----------------|---------7-5----|-----------------|-7-5-------------o||
|-3-0-0-0-5-0-0-0-|-3-0-0-0--------|-3-0-0-0-5-0-0-0-|-----7-6-5-3-5-0--||


  E E E E E E E E   E E E E E Q.     E E E E E E E E   E E E E  E  Q.
|-----------------|----------------|-----------------|------------------|
|-----------------|----------------|-----------------|------------------|
|-----------------|----------------|-----------------|---------14-12----|
|-----------------|----------------|-----------------|------------------|
|-----------------|---------7-5----|-----------------|-7-5--------------|
|-3-0-0-0-5-0-0-0-|-3-0-0-0--------|-3-0-0-0-5-0-0-0-|-----7-0----------|
|
| E E E E E E E E   E E E E E Q.     E E E E E E E E   E E E E  E  Q.
|-----------------|----------------|-----------------|------------------|
|-----------------|----------------|-----------------|------------------|
|-----------------|----------------|-----------------|------------------|
|-----------------|----------------|-----------------|------------------|
|-----------------|---------7-5----|-----------------|-7-5--------------|
|-3-0-0-0-5-0-0-0-|-3-0-0-0--------|-3-0-0-0-5-0-0-0-|-----7-6--5--3----|


  E E E E E E E E   E E E E E Q.     E E E E E E E E   E E E E E E E E
|-----------------|----------------|-----------------|-----------------|
|-----------------|----------------|-----------------|-----------------|
|-----------------|----------------|-----------------|-----------------|
|-----------------|----------------|-----------------|-----------------|
|-----------------|---------7-5----|-----------------|-x-x-x-x-x-x-x-x-|
|-3-0-0-0-5-0-0-0-|-3-0-0-0--------|-3-0-0-0-5-0-0-0-|-x-x-x-x-x-x-x-x-|
|
| E E E E E E E E   E E E E E Q.     E E E E E E E E   W
|-----------------|----------------|-----------------|-----------------|
|-----------------|----------------|-----------------|-----------------|
|-----------------|----------------|-----------------|-----------------|
|-----------------|----------------|-----------------|-----------------|
|-----------------|---------7-5----|-----------------|-----------------|
|-3-0-0-0-5-0-0-0-|-3-0-0-0--------|-3-0-0-0-5-0-0-0-|-----------------|


First Solo:

  \1
  H.      Q     Q       E       E   E      E       E   E
|------------|----------------------------------------------|
|------------|---------15b17===15r--------15b17===15r-------|
|------------|-14b16--(14)----(14)-14b16-(14)----(14)-14b16-|
|------------|----------------------------------------------|
|-2----------|----------------------------------------------|
|-0----------|----------------------------------------------|
|
| \1
| H.      Q     Q       E       E   E      E       E   E
|------------|----------------------------------------------|
|------------|----------------------------------------------|
|------------|----------------------------------------------|
|------------|--9-------9-------9----------9-------9--------|
|-2----------|--7-------7-------7---7------7-------7---7----|
|-0----------|----------------------------------------------|


    E       E   E      E       E   E      E       E     Q      Q       E     H
|----------------------------------------------------|---------------------------------|
|--15b17===15r--------15b17===15r--------15b17===15r-|-18b20--18b20---18b20------------|
|-(14)----(14)-14b16-(14)----(14)-14b16-(14)----(14)-|-17b19--17b19---17b19------------|
|----------------------------------------------------|---------------------------------|
|----------------------------------------------------|----------------------12\--------|
|----------------------------------------------------|----------------------12\--------|
|
|   Q           E      E       E   E      E       E     Q      E    E  E     E  E E E
|----------------------------------------------------|---------------------------------|
|----------------------------------------------------|---------------------------------|
|----------------------------------------------------|---------------------------------|
|---7-----------7------7-----------7------7----------|---------------------------------|
|---5-----------5------5-------5---5------5-------5--|--7------7----7--------7--7---2--|
|----------------------------------------------------|--5------5----5--5-----5--5-5-0--|


                                                                T
                 |-----3-----|        |--3---| |--3--|
   Q     E   E   Q     Q     Q        E  E   E E E   E +Q.      E
|----------------------------------|---------------------------12-|
|----------------------------------|------------------------------|
|----------------------------------|------------------------------|
|--8b9---8b9-8b9-8b9---8b9---8b9---|--8--7---5--------------------|
|----------------------------------|-----------7-5---7-(7)--------|
|----------------------------------|------------------------------|
|
| +E   E E   E   E   E     E     E   +E    E   E   E    E  E E  E
|----------------------------------|------------------------------|
|----------------------------------|------------------------------|
|----------------------------------|------------------------------|
|----------------------------------|----------------------------7-|
|-(2)--2-2-------2---2-----2-----2-|-(2)---2---2--------2--2----5-|
|-(0)--0-0---0---0---0-----0-----0-|-(0)---0---0---0----0--0-0----|


                    T              T
   S   S S  S S  S  S S S S S S S  S S S    S  S S S S S S S  E    E E  E
|--7--10-7-10-7-10-11-6-9-6-9-6-9-10-5-8-|--5--8-5-8-5-8-5-8---------------|
|----------------------------------------|---------------------------------|
|----------------------------------------|---------------------------------|
|----------------------------------------|---------------------------------|
|----------------------------------------|------------------------------2--|
|----------------------------------------|--------------------6----5-3--0--|
|
| +E     E    E     E   E   E   E    E     +E    E   E   E    Q.        E
|----------------------------------------|-------------------11b12---------|
|----------------------------------------|-----------------------------10--|
|----------------------------------------|---------------------------------|
|-(7)----7----7---------7---7------------|---------------------------------|
|-(5)----5----5-----5---5---5---5----7---|-(7)---7---7---------------------|
|------------------------------------5---|-(5)---5---5---5-----------------|


2nd Solo:

   +E     E E E  E    E E  E    +E  E E E E E   E  E
|----------------------------|-----------------------|
|----------------------------|-----------------------|
|----------------------------|-----------------------|
|----------------------------|---------------------7-|
|--(2)----2-2----2----2----2-|--(2)-2-2---2-2------5-|
|--(0)----0-0-0--0----0-0--0-|--(0)-0-0-0-0-0---0----|
|
|  +H            Q      E  E    +H.            +E  E
|----------------------------|-----------------------|
|-(10)b12-------10b12r=======|=======================|
|-----------------------9-12-|-(12)-----------(12)-9-|
|----------------------------|-----------------------|
|----------------------------|-----------------------|
|----------------------------|-----------------------|


  +E    E   E   E   E   E    E    E     +E    E    E    E   E E E E
|-------------------------------------|-----------------------------|
|-------------------------------------|-----------------------------|
|-------------------------------------|-----------------------------|
|-(7)---7---7-------7---7-------------|-----------------------------|
|-(5)---5---5---5---5---5----5----7---|-(7)---7----7--------7-7---2-|
|---------------------------------5---|-(5)---5----5----5---5-5-5-0-|
|
|  |--3---| |--3--| |--3---| |--3---|    |---3---| |--3---|
|  E  E   E E E   E E E    E E  E   E    E  E    E E  E   E H
|-------------------------------------|-----------------------------|
|-------------------------------------|-----------------------------|
|--9--7-----7-------------------------|-----------------------------|
|---------9---9---7-9-7------7--------|-----------------------------|
|-------------------------10---10---7-|-10--7------7----------------|
|-------------------------------------|---------10---10---7-5-------|


  +E     E       E         E  E      E         E         E   +E     E E  E   E   E E E
|----------------------------------------------------------|---------------------------|
|----------------------------------------------------------|---------------------------|
|----------------------------------------------------------|---------------------------|
|----------------------------------------------------------|-------------------------7-|
|-(2)----2-------2------------2------2-------------------2-|-(2)----2-2------2---2---5-|
|-(0)----0-------0---------0--0------0---------0---------0-|-(0)----0-0--0---0---0-0---|
|
|                   \0.25/    \0.25/    \0.25/    \0.25/
|  |-------3--------|         |---------3---------|
|  Q        +Q      Q         Q         Q         Q           Q.         E  +H
|----------------------------------------------------------|---------------------------|
|-15b17====(15)r---15b17-----15b17-----15b17-----15b17-----|-15b17======15-(15)r-------|
|-14b16====(14)r---14b16-----14b16-----14b16-----14b16-----|---------------------------|
|----------------------------------------------------------|---------------------------|
|----------------------------------------------------------|---------------------------|
|----------------------------------------------------------|---------------------------|


  +E    E  E      E E  E  E  E    +E   E  E     E  E  E  E  E
|------------------------------|-------------------------------|
|------------------------------|-------------------------------|
|------------------------------|-------------------------------|
|-(7)---7--7--------7--7-------|-------------------------------|
|-(5)---5--5------5-5--5--5--7-|--(7)--7--7--------9--8--7--2--|
|----------------------------5-|--(5)--5--5-----5--7--6--5--0--|
|
|  Q       E      Q    E  E  E    +E   E  S  S  E  E  E  E  E
|-15b17---15b17==15r===========|===============================|
|---------------------17-15-17-|-(17)-17-17-15-12-12-17-15-17--|
|------------------------------|-------------------------------|
|------------------------------|-------------------------------|
|------------------------------|-------------------------------|
|------------------------------|-------------------------------|

Chant:

   +H     H      Wx6          Q  E E E E E E
|--------------|------------|-------------------|
|--------------|------------|-------------------|
|--------------|------------|-9--9-7------------|
|--------------|------------|--------9-8-7-5----|
|--(2)---------|------------|-------------------|
|--(0)---------|------------|-------------------|
|
|  +H     H                   Q  E E E E E E
|--------------|------------|-------------------|
|-(17)---------|------------|-------------------|
|--------------|------------|-------------------|
|--------------|------------|-------------------|
|--------------|------------|-7--7-5------------|
|--------------|------------|--------7-6-5-3----|

Final Chorus:

     Q   E  E E  E  E E    Q   E  E E  E  E E
||----------------------|---------------------|
||o---------------------|---------------------|
||--12--12-11---12-11---|-12--12-11---12-11---|
||----------------------|---------------------|
||o-10--10--9---10--9---|-10--10--9---10--9---|
||----------------------|---------------------|
|
|    Q   E  E E  E  E E    Q   E  E E  E  E E
||----------------------|---------------------|
||o---------------------|---------------------|
||----------------------|---------------------|
||----------------------|---------------------|
||o--2---2--2-2--2--2-2-|--2----------------5-|
||---0---0--0-0--0--0-0-|--0---0--3-0--5--7---|


   Q   E  E E  E  E E    Q   E  E E  E  E  E
|---------------------|-----------------------|
|---------------------|-----------------------|
|-14--14-12---14-12---|-16--16-14---16-14-12--|
|---------------------|-----------------------|
|-12--12-10---12-10---|-14--14-12---14-12-10--|
|---------------------|-----------------------|
|
|  Q   E  E E  E  E E    Q   E  E E  E  E  E
|---------------------|-----------------------|
|---------------------|-----------------------|
|---------------------|-----------------7--9--|
|-----------------5-7-|--7---7--7-7--9--------|
|--5---5--5-5--7------|--5---5--5-5-----------|
|--3---3--3-3---------|-----------------------|


   Q   E  E E  E  E E    Q   E  E E  E  E E
|---------------------|---------------------|
|---------------------|---------------------|
|-12--12-11---12-11---|-12--12-11---12-11---|
|---------------------|---------------------|
|-10--10--9---10--9---|-10--10--9---10--9---|
|---------------------|---------------------|
|
|  Q   E  E E  E  E E    Q   E  E E  E  E E
|---------------------|---------------------|
|---------------------|---------------------|
|---------------------|---------------------|
|---------------------|---------------------|
|--7---2--2-2--2--2-2-|--2----------------5-|
|------0--0-0--0--0-0-|--0---0--3-0--5--7---|


   Q   E  E E  E  E E    Q   E  E E  E  E  E
|---------------------|-----------------------||
|---------------------|----------------------o||
|-14--14-12---14-12---|-16--16-14---16-14-12--||
|---------------------|-----------------------||
|-12--12-10---12-10---|-14--14-12---14-12-10-o||
|---------------------|-----------------------||
|
|  Q   E  E E  E  E E    Q   E  E E  E  E  E
|---------------------|-----------------------||
|---------------------|----------------------o||
|---------------------|-----------------7--9--||
|-----------------5-7-|--7---7--7-7--9--------||
|--5---5--5-5--7------|--5---5--5-5----------o||
|--3---3--3-3---------|-----------------------||


  Q  E E E E E E    E E E  E E E  E E    E E E  E E E  E E    W
|----------------|--------------------|--------------------|-------|
|----------------|--------------------|--------------------|-------|
|----------------|-12-----12-----12---|-12-----12-----12---|-12----|
|----------------|--------------------|--------------------|-------|
|-2--2-2-2-2-2-2-|-10-----10-----10---|-10-----10-----10---|-10----|
|-0--0-0-0-0-0-0-|----0-0----0-0----0-|----0-0----0-0----0-|-------|
|
| Q  E E E E E E    E E E  E E E  Q      E E E  E E E  E E    W
|----------------|--------------------|--------------------|-------|
|----------------|--------------------|--------------------|-------|
|----------------|-12-----12-----12---|-12-----12-----12---|-12----|
|----------------|--------------------|--------------------|-------|
|-2--2-2-2-2-2-2-|-10-----10-----10---|-10-----10-----10---|-10----|
|-0--0-0-0-0-0-0-|----0-0----0-0------|----0-0----0-0----0-|-------|


The End

please rate and comment!

--------------------------------------------------------------------------------


Duration Legend
---------------
W - whole; H - half; Q - quarter; E - 8th; S - 16th; T - 32nd; X - 64th; a - acciaccatura
+ - note tied to previous; . - note dotted; .. - note double dotted
Uncapitalized letters represent notes that are staccato (1/2 duration)
Irregular groupings are notated above the duration line
Duration letters will always appear directly above the note/fret number it represents the
duration for.  Duration letters with no fret number below them represent rests.  Multi-
bar rests are notated in the form Wxn, where n is the number of bars to rest for.  Low
melody durations appear below the staff

Tablature Legend
----------------
 h   - hammer-on
 p   - pull-off
 b   - bend
 pb  - pre-bend
 r   - bend release (if no number after the r, then release immediately)
 /\  - slide into or out of (from/to "nowhere")
 s   - legato slide
 S   - shift slide
 - natural harmonic
[n]  - artificial harmonic
n(n) - tapped harmonic
 ~   - vibrato
 tr  - trill
 T   - tap
 TP  - trem. picking
 PM  - palm muting
\n/  - tremolo bar dip; n = amount to dip
 \n  - tremolo bar down
 n/  - tremolo bar up
/n\  - tremolo bar inverted dip
 =   - hold bend; also acts as connecting device for hammers/pulls
 <> - volume swell (louder/softer)
 x   - on rhythm slash represents muted slash
 o   - on rhythm slash represents single note slash

Misc Legend
-----------
 |  - bar
||  - double bar
||o - repeat start
o|| - repeat end
*|  - double bar (ending)
 :  - bar (freetime)
 $  - Segno
 &  - Coda
Tempo markers -  = BPM(8/16=s8/s16), where s8 = swing 8ths, s16 = swing 16ths



--------------------------------------------------------------------------------

** Generated using Power Tab Editor by Brad Larsen: The Official Power Tab Web Site
Suggest correction
Creating personal tab
Creating personal tab
You can edit any tab online and save it as your Personal.

You can edit, replace or remove any tab part or add personal notes – all changes will be seen only by you.

Personal tabs can be accessed anytime from any device, even offline.
Learn more »
comments
print report bad tab
20 comments total. Showing first comments.
0 reply
gnrfan94 10 Apr 13, 2008 01:27 PM

Thank u so much 4 this tab. i really needed it. but it kind of screws me over because now i have 2 learn the song all over again because i was playing drop d

0 reply
Sic59 10 Apr 13, 2008 05:20 PM

dude.nice are you gona do all of their songs? bc you should

0 reply
cheez1492 685 May 14, 2008 07:04 PM

smart? ha
go to a show guys
all of their songs are D standard

guest
You may want to rate the tab now too:
select rating
Wanna post a correction for this tab? Suggest correction