Oops, an error
Loading. Please wait.

That Fire Tab

version 1
version 1

Whole song

Interactive

26,277 views 33 this week
no commentswrite comment
1 2 3 4 5
accurate
x 5
add to favorites
launch autoscroll
font size
0
reset
how to read this tab
guitar tuner
Autoscroll
slow
fast
+/-
esc
set tempo
stop
Help us to improve Ultimate-Guitar.com Take our survey!
×
Difficulty
intermediate
BLACK TIDE: 
THAT FIRE 


INTRO:
e|--x-------x----------------------------------------------------|X4
B|--5-------4----------------------------------------------------|
G|--2-x5----2-x5-------------------------------------------------|
D|--4-------4----------------------------------------------------|
A|--0-------0----------------------------------------------------|
E|--3-------3----------------------------------------------------|

ill tell you all...
e|--x-------x----------------------------------------------------|x2
B|--5-------4----------------------------------------------------|
G|--2 ~~~~ -2 ~~~~ ----------------------------------------------|
D|--4-------4----------------------------------------------------|
A|--0-------0----------------------------------------------------|
E|--3-------3----------------------------------------------------|


MAIN RIFF:
FIRE!!!
e|---------------------------------------------------------------|x2
B|---------------------------------------------------------------|
G|---------------------------------------------------------------|
D|---------------------------------------------------------------|
A|------------2-h4p-2-------------------4------------------------|
E|--2-0-2-5-2---------2-h5p-2-----2-0-2---0--X00--x00--x00-------|


VERSE:
so after all th...
e|---------------------------------------------------------------|x2
B|---------------------------------------------------------------|
G|---------------------------------------------------------------|
D|---------------------------------------------------------------|
A|--------------------------------------5-4-2--------------------|
E|---2-0-2---00-00-0000--2-0-2---00-00---0-0---------------------|


BUILD UP:
your so niave
e|---------------------------------------------------------------|x1
B|---------------------------------------------------------------|
G|---------------------------------------------------------------|
D|---------------------------------------------------------------|
A|--9-x-9-----9-x-9---9-x-9-----9x/-X6---------------------------|
E|--7-x-7-----7-x-7---7-x-7-----7x/------------------------------|


CHORUS:
ill tell you all..
e|---------------------------------------------------------------|x2
B|---------------------------------------------------------------|
G|---------------------------------------------------------------|
D|---6-X4---9-X4-------------------------------------------------|
A|---4------7-----9-X4---11-x4-----------------------------------|
E|----------------7------9---------------------------------------|


MAIN RIFF:
FIRE!
e|---------------------------------------------------------------|x2
B|---------------------------------------------------------------|
G|---------------------------------------------------------------|
D|---------------------------------------------------------------|
A|------------2-h4p-2-------------------4------------------------|
E|--2-0-2-5-2---------2-h5p-2-----2-0-2---0--X00--x00--x00-------|




VERSE:
nothing changed...
e|---------------------------------------------------------------|x2
B|---------------------------------------------------------------|
G|---------------------------------------------------------------|
D|---------------------------------------------------------------|
A|---------------------------------------5-4-2-------------------|
E|---2-0-2---00-00-0000--2-0-2---00-00--0-0----------------------|



BUIILD UP:
your so niave..
e|---------------------------------------------------------------|x1
B|---------------------------------------------------------------|
G|---------------------------------------------------------------|
D|---------------------------------------------------------------|
A|--9-x-9-----9-x-9---9-x-9-----9x/-X6---------------------------|
E|--7-x-7-----7-x-7---7-x-7-----7x/------------------------------|



CHORUS:
i tell you...
e|---------------------------------------------------------------|x2
B|---------------------------------------------------------------|
G|---------------------------------------------------------------|
D|---6-X4---9-X4-------------------------------------------------|
A|---4------7-----9-X4---11-x4-----------------------------------|
E|----------------7------9---------------------------------------|



MAIN RIFF:
FIRE!
e|---------------------------------------------------------------|x2
B|---------------------------------------------------------------|
G|---------------------------------------------------------------|
D|---------------------------------------------------------------|
A|------------2-h4p-2-------------------4------------------------|
E|--2-0-2-5-2---------2-h5p-2-----2-0-2---0--X00--x00--x00-------|



SOLO!

FIRE!

BACKGROUND OF SOLO:
e|---------------------------------------------------------------|x1
B|---------------------------------------------------------------|
G|---------------------------------------------------------------|
D|---------------------------------------------------------------|
A|-----9-X6---------7=---7-7=-x4---------------------------------|
E|--00-7------------5=---5-5=------------------------------------|


INTRO AGAIN...
ill tell you all...
e|--x-------x----------------------------------------------------|x2
B|--5-------4----------------------------------------------------|
G|--2 ~~~~ -2 ~~~~ ----------------------------------------------|
D|--4-------4----------------------------------------------------|
A|--0-------0----------------------------------------------------|
E|--3-------3----------------------------------------------------|



CHORUS:
i tell you all...
e|---------------------------------------------------------------|x4
B|---------------------------------------------------------------|
G|---------------------------------------------------------------|
D|---6-X4---9-X4-------------------------------------------------|
A|---4------7-----9-X4---11-x4-----------------------------------|
E|----------------7------9---------------------------------------|




MAIN RIFF:
FIRE!
e|---------------------------------------------------------------|x2
B|---------------------------------------------------------------|
G|---------------------------------------------------------------|
D|---------------------------------------------------------------|
A|------------2-h4p-2-------------------4------------------------|
E|--2-0-2-5-2---------2-h5p-2-----2-0-2---0--X00--x00--x00-------|




LAST CHORD:
e|---------------------------------------------------------------|x1
B|---------------------------------------------------------------|
G|---------------------------------------------------------------|
D|---------------------------------------------------------------|
A|----7=---------------------------------------------------------|
E|----5=---------------------------------------------------------|



= > slide
* > mute/palm mute
H > hammer on
P > pull off
~ > hold note 

Callum.
Suggest correction
comments
print report bad tab
guest
You may want to rate the tab now too:
select rating
Please do not post tabs as comments. Select "correction" instead!