Oops, an error
Loading. Please wait.

Warriors Of Time intro tab

version 2
version 2

Whole song

Interactive

7,348 views 3 this week
1 commentread comment
1 2 3 4 5
1 last vote to show rating
add to favorites
×
Save as Personal and add changes to this tab that will be seen only by you. Learn more ›
×
You can save this tab as Personal to edit and correct it or add notes. All changes will be seen only by you. Learn more »
launch autoscroll
font size
0
reset
how to read this tab
guitar tuner
edit
Autoscroll
slow
fast
+/-
esc
set tempo
stop
Difficulty
intermediate
this is the intro and just a little more of the song i didnt know what category that 
be put under but here is the tab for this song


standard tuning

----------------------------------------|
----------------------------------------|
----------------------------------------|
---7------3--------5--------------------|
---5------1----3---3--------------------|
---------------1------------------------|
woah .......

----------------------------------------|
----------------------------------------|
----------------------------------------|
--7----------------3--------------------|
--5-55555555555555-1-111111111111-------|
----------------------------------------|


----------------------------------------|
----------------------------------------|
----------------------------------------|
------------------5---------------------|
--3---------------3-333333333333--------|
--1-111111111111------------------------|


------------------------------------------------------------------|
------------------------------------------------------------------|
------------------------------------------------------------------|
--7---------------5---------------5-3-2--3-2----------------------|
--5-5555555555555-3-33333333333--------5---111111111111-----------|
------------------------------------------------------------------|

------------------------------------------------------------------|
------------------------------------------------------------------|
-----------------2------------------------------------------------|
--3-2------2-----2---------------------------------------3--------|
-----5--3---5-3--0------1-0--1-0-------------0---0-1-0-1----------|
----------------------------3----3-0-1-3-1-3---3------------------|

i cant remembre whats after that but here is the chorus

----------------------------------------------------|--------------|
----------------------------------------------------|--------------|
----------------------------------------------------|--------------|
---7------------------------------------------------|-------5------|
---5-555555555555555--3--------------5--------------|--5-6-7---7-5-|
----------------------1-11111111111--3-333333333333-|--------------|
 repeat this part play the first ending then  repeat| First ending
and play second ending

--------------------------|
--------------------------|
---------------7~---------|
---------5-7-9------------|
---5-6-7------------------|
--------------------------|

i hope this is good for now i will finish the rest as i write it out
crackerz_graham@hotmail.com

im psoitive that this is 100% correct unless i made a typo somewhere :D
Suggest correction
Creating personal tab
Creating personal tab
You can edit any tab online and save it as your Personal.

You can edit, replace or remove any tab part or add personal notes – all changes will be seen only by you.

Personal tabs can be accessed anytime from any device, even offline.
Learn more »
Give kudos to tab author, rate the tab!
1 2 3 4 5
comments
print report bad tab
1 comment total.
+1 reply
mosher666 144 Aug 13, 2008 09:19 AM

this bit is right, but it is not got the proper intro, what about the bit right at the beginning?

guest
Wanna post a correction for this tab? Suggest correction