Oops, an error
Loading. Please wait.

Face Tab

106 views 1 this week
no commentswrite comment
1 2 3 4 5
please rate
add to favorites
launch autoscroll
font size
0
reset
how to read this tab
guitar tuner
Autoscroll
slow
fast
+/-
esc
set tempo
stop
Help us to improve Ultimate-Guitar.com Take our survey!
×
Difficulty
intermediate


INTRO

E|-7-9-10---------------------------------|
A|-------7-9-10-------10-9-7--------------|
D|--------------7h9p7---------------------|    4x
G|----------------------------------------|
B|----------------------------------------|
e|----------------------------------------|

MAIN RIFF               

E|-0-0-x-x-1-1--0-0-x-x-1-1--0-0-x-x-1-1-|    |-3-3-x-1---|
A|-2-2-x-x-3-3--2-2-x-x-3-3--2-2-x-x-3-3-|    |-5-5-x-3---|
D|-2-2-----3-3--2-2-x-x-3-3--2-2-----3-3-|    |-5-5-x-3---|         4x
G|---------------------------------------|    |-----------|
B|---------------------------------------|    |-----------|
e|---------------------------------------|    |-----------|

CHORUS

E|---x-x-x---x-x-x----x-x-x----|
A|-2-x-x-x-3-x-x-x--2-x-x-x-3--|
D|-2-------3-x-x-x--2-------3--|
G|-2-------3--------2-------3--|
B|-----------------------------|
e|-----------------------------|


MAIN RIFF               

E|-0-0-x-x-1-1--0-0-x-x-1-1--0-0-x-x-1-1-|    |-3-3-x-1---|
A|-2-2-x-x-3-3--2-2-x-x-3-3--2-2-x-x-3-3-|    |-5-5-x-3---|
D|-2-2-----3-3--2-2-x-x-3-3--2-2-----3-3-|    |-5-5-x-3---|         4x
G|---------------------------------------|    |-----------|
B|---------------------------------------|    |-----------|
e|---------------------------------------|    |-----------|


Zach Solo  (End on Main Riff chords)

MAIN RIFF               

E|-0-0-x-x-1-1--0-0-x-x-1-1--0-0-x-x-1-1-|    |-3-3-x-1---|
A|-2-2-x-x-3-3--2-2-x-x-3-3--2-2-x-x-3-3-|    |-5-5-x-3---|
D|-2-2-----3-3--2-2-x-x-3-3--2-2-----3-3-|    |-5-5-x-3---|         4x
G|---------------------------------------|    |-----------|
B|---------------------------------------|    |-----------|
e|---------------------------------------|    |-----------|


Zach Outro
Suggest correction
Give kudos to tab author, rate the tab!
1 2 3 4 5
comments
print report bad tab
guest
You may want to rate the tab now too:
select rating
Please do not post tabs as comments. Select "correction" instead!