Oops, an error
Loading. Please wait.

A Devil For Me Bass Tab

version 1
version 1

Whole song

Interactive

646 views 3 this week
no commentswrite comment
1 2 3 4 5
please rate
add to favorites
launch autoscroll
font size
0
reset
guitar tuner
Autoscroll
slow
fast
+/-
esc
set tempo
stop
Help us to improve Ultimate-Guitar.com Take our survey!
×
Difficulty
novice
This is my first tab guys, so go a little easy on me ;) I wasn't too sure on the 
chorus, so if you want, go ahead and fix it up :P
A Devil Fore Me by Black Veil Brides
Standard Tunning (GDAE) 
- Brenden

Intro: 0:15
G|--------------------------------------------------|
D|--------------------------------------------------|
A|----------3~---3----------------------------------|
E|--5~---5----------3~---3--0~--3-------------------|

Verse 1: 0:22
G|--------------------------------------------------|
D|--------------------------------------------------|
A|----------3-3-3-3---------------------------------|
E|--5-5-5-5---------3-3-3-3-0-0-3-3-----------------| x4

Verse 2: 0:54
G|-------------------------------------------------------|
D|-------------------------------------------------------|
A|------3-3---------2-2----------3-3---------2-2---------|
E|--5-5--5-5----3-3--3-3-----5-5--5-5----3-3--3-3~-------| x2

Intro: 1:23

Verse 1: 1:30

Verse 3: 1:39
G|--------------------------------------------------|
D|--------------------------------------------------|
A|----------3-3-3-3---------------------------------|
E|--5-5-5-5---------3-3-3-3-0-0-3035----------------|

1:43
G|--------------------------------------------------|
D|--------------------------------------------------|
A|--------------------------------------------------|
E|--00-00-00----------------------------------------|

Chorus:1:50

G|--------------------------------------------------|
D|--------------------------------------------------|
A|--------------------------------------------------|
E|--2-1-0~--3-5~---2-1-0~--3-5-5---2-1-0~--5~--3~---|

G|--------------------------------------------------|
D|--------------------------------------------------|
A|--------------------------------------------------|
E|--33-33-33-3--------------------------------------|

Intro:2:04

Verse 1: x2 2:19

Verse 3: x1 2:26

Chorus: x2 2:34

3:02
G|--------------------------------------------------|
D|--------------------------------------------------|
A|----------3-3-3-3---------------------------------|
E|--5-5-5-5---------3-3-3-3-0-0-3-3-----------------|

G|--------------------------------------------------|
D|--------------------------------------------------|
A|----------3-3-3-3---------------------------------|
E|--5-5-5-5---------3-3-3-3-0-0-3035----------------|

Outro: 3:18

G|--------------------------------------------------|
D|--------------------------------------------------|
A|----------3-3-3-3---------------------------------|
E|--5-5-5-5---------3-3-3-3-0-0-3-3-----------------|
Repeat until the end of the song!
comments
We did not receive enough feedback on this tab! Please rate:
print report bad tab
1 2 3 4 5
I want to post or [tab]
guest
You may want to rate the tab now too:
select rating
Please do not post tabs as comments. Select "correction" instead!