Oops, an error
Loading. Please wait.

Beautiful Remains Tab

version 1
version 1

Solo

Interactive

3,689 views 3 this week
no commentswrite comment
1 2 3 4 5
please rate
add to favorites
launch autoscroll
font size
0
reset
how to read this tab
guitar tuner
Autoscroll
slow
fast
+/-
esc
set tempo
stop
Help us to improve Ultimate-Guitar.com Take our survey!
×
Author
Difficulty
Tuning
intermediate
C# G# C# F# A# D#
~SOLO~

**IMPORTANT**
The song is in Drop C#... ignore the EBGDAE in the tab below (: Enjoy.

Cover of this song here: http://www.youtube.com/watch?v=ey6GjBnSnyw

E|------------------------------------------------------------------|--
B|--15------------------------------15------------------------------|--
G|------14------14------14------14------14------14------14------14--|--
D|----------15------12------15--------------15------12------15------|--
A|------------------------------------------------------------------|--
E|------------------------------------------------------------------|--

E|------------------------------------------------------------------|--
B|------------------------------------------------------------------|--
G|--15------------------------------15------------------------------|--
D|------17--16--17------17--16--17------17--16--17------17--16--17--|--
A|------------------17------------------------------17--------------|--
E|------------------------------------------------------------------|--

E|------------------------------------------------------------------|--
B|--14------------------------------14------------------------------|--
G|------12------12------12------12------12------12------12------12--|--
D|----------15------14------15--------------15------14------15------|--
A|------------------------------------------------------------------|--
E|------------------------------------------------------------------|--

E|------------------------------------------------------------------|--
B|--15------------------------------15------------------------------|--
G|------14------14------14------14------14------14------14------14--|--
D|----------15------12------15--------------15------12------15------|--
A|------------------------------------------------------------------|--
E|------------------------------------------------------------------|--

E|-----|--
B|-----|--
G|-----|--
D|--8--|--
A|--8--|--
E|--8--|--

E|-----------------------------------|--
B|-----------------------------------|--
G|--10--12p10--9------10--9----------|--
D|----------------12---------12--10--|--
A|-----------------------------------|--
E|-----------------------------------|--

E|-----|--
B|-----|--
G|-----|-- 
D|--0--|--
A|--0--|--
E|--0--|--

E|----------------------------------------------|--
B|--10h13p10------10------------------8*--6-----|--
G|------------12------12--10--12--10---------7--|--
D|----------------------------------------------|--
A|----------------------------------------------|--
E|----------------------------------------------|--


E|-----------------|-----
B|-----------------|-----
G|--10--12--9--10--|----- TREMOLO PICKED
D|-----------------|-----
A|-----------------|-----
E|-----------------|-----

E|-------------------------------------------------------|--
B|--10h13p10------10----------------------8*--6--10/15~~~|--
G|------------12------12--10--12--11--10-----------------|--
D|-------------------------------------------------------|--
A|-------------------------------------------------------|--
E|-------------------------------------------------------|--


E|--------------------------|--
B|------18--18--17--13--15--|--
G|--17----------------------|--
D|--------------------------|--
A|--------------------------|--
E|--------------------------|--


E|--13--10--8-(x4)----17--13--10-(x4)----13--10--8-(x4)-|--
B|------------------------------------------------------|-- Tapped!
G|------------------------------------------------------|--
D|------------------------------------------------------|--
A|------------------------------------------------------|--
E|------------------------------------------------------|--

E|----------13--12---------------------------------------------|--
B|------13----------13/15~~~~--13--------------19h21h22--22~~~~|--
G|--14-----------------------------14--13--19------------------|--
D|-------------------------------------------------------------|--
A|-------------------------------------------------------------|--
E|-------------------------------------------------------------|--

E|--15h17p15------15--18--17--18--17--15------|--
B|------------18--------------------------18--|--
G|--------------------------------------------|--
D|--------------------------------------------|--
A|--------------------------------------------|--
E|--------------------------------------------|--

E|--------------------------------------------------|--
B|--15h17p15--14--15--18--15h18p15------15--17--18--|--
G|----------------------------------17--------------|--
D|--------------------------------------------------|--
A|--------------------------------------------------|--
E|--------------------------------------------------|--
Suggest correction
What's this?
You can suggest a correction to this tab. Community and Mods will review your correction and vote to approve or reject it.
comments
We did not receive enough feedback on this tab! Please rate:
print report bad tab
1 2 3 4 5
guest
You may want to rate the tab now too:
select rating
Please do not post tabs as comments. Select "correction" instead!