Oops, an error
Loading. Please wait.

Carolyn Bass Tab

version 1
version 1

Whole song

Interactive

5,932 views 1 this week
no commentswrite comment
1 2 3 4 5
x 3
add to favorites
launch autoscroll
font size
0
reset
guitar tuner
Autoscroll
slow
fast
+/-
esc
set tempo
stop
Help us to improve Ultimate-Guitar.com Take our survey!
×
Author
Difficulty
novice
the song is pretty simple and straight forward. enjoy!

start at :34

G|---------------------------------|
D|----------5--0-------------0-----|
A|--0--2-3--------0--2-3--------0--|
E|------------------------3--------|


... of learning how and when we'll die

G|-----------------------------|
D|--------0000--2222--3-2---0--|   repeat 3x
A|--3333------------------2----|
E|-----------------------------|


... you're not alone

G|---------------------------------|
D|----------5--0-------------0-----|
A|--0--2-3--------0--2-3--------0--|
E|------------------------3--------|

G|----------------|
D|--------0-2-----|
A|--2-0-----------|
E|------3-----0---|


... so here's my song i wrote in time

G|-----------------------------|
D|--------0000--2222--3-2---0--|   repeat 3x
A|--3333------------------2----|
E|-----------------------------|


...you're not alone

G|---------------------------------|
D|----------5--0-------------0-----|   repeat 2x
A|--0--2-3--------0--2-3--------0--|
E|------------------------3--------|


*guitar solo*


G|-------------------|--------------------------|
D|-------------------|--------------------------|
A|--3--5--7--3--5--7-|--3-2-0-------3-2-0-------|
E|-------------------|--------0--3--------0--3--|


...and we'll brave this storm

G|---------------------------------|
D|----------5--0-------------0-----|
A|--0--2-3--------0--2-3--------0--|
E|------------------------3--------|

repeat until end
Suggest correction
Give kudos to tab author, rate the tab!
1 2 3 4 5
comments
print report bad tab
guest
You may want to rate the tab now too:
select rating
Wanna post a correction for this tab? Suggest correction