Oops, an error
Loading. Please wait.

Carolyn tab

version 2
version 2

Whole song

Interactive

35,486 views 54 this week
2 commentsread comments
1 2 3 4 5
x 11
add to favorites
×
Save as Personal and add changes to this tab that will be seen only by you. Learn more ›
×
You can save this tab as Personal to edit and correct it or add notes. All changes will be seen only by you. Learn more »
launch autoscroll
font size
0
reset
how to read this tab
guitar tuner
edit
Autoscroll
slow
fast
+/-
esc
set tempo
stop
Author
Difficulty
intermediate
Tuning: EADGBE

[Intro]
E|-------0------------0------------0----------------------------------------|
B|----0---0-0------0---0-0------0---0-0------0---0---0---0------------------|
G|---0-0---0-0----0-0---0-0----0-0---0-0------------------------------------|
D|--5---5-----5--7---7-----7--9---9-----9--10---9---4---7-------------------|
A|-3------------5------------7------------8----7---2---5--------------------|
E|--------------------------------------------------------------------------|

E|-----------------------------------------/8-7-5-2-------------------------|
B|-/8-7-5----------/8-10-7--8-7-5-7-/8-7-5----------------------------------|
G|--------/5-4-2-0----------------------------------------------------------|
D|--------------------------------------------------------------------------|
A|--------------------------------------------------------------------------|
E|--------------------------------------------------------------------------|

E|-----15----15----15-------------------------------------------------------| (x3)
B|-17b----17----17----17-15-17-15-17----------------------------------------|
G|--------------------------------------------------------------------------|
D|--------------------------------------------------------------------------|
A|--------------------------------------------------------------------------|
E|--------------------------------------------------------------------------|
                                                                          
E|-15-------------------17-15-------17-15-----------------------------------| (x2)
B|----17-15----------15-------17-15-----------------------------------------|
G|----------17-14-17--------------------------------------------------------|
D|--------------------------------------------------------------------------|
A|--------------------------------------------------------------------------|
E|--------------------------------------------------------------------------|

[Verse]
E|-------0------------0------------0----------------------------------------| (x4)
B|----0---0-0------0---0-0------0---0-0------0---0---0---0------------------|
G|---0-0---0-0----0-0---0-0----0-0---0-0------------------------------------|
D|--5---5-----5--7---7-----7--9---9-----9--10---9---4---7-------------------|
A|-3------------5------------7------------8----7---2---5--------------------|
E|--------------------------------------------------------------------------|

[Chorus]
E|-----15----15----15-------------------------------------------------------| (x3)
B|-17b----17----17----17-15-17-15-17----------------------------------------|
G|--------------------------------------------------------------------------|
D|--------------------------------------------------------------------------|
A|--------------------------------------------------------------------------|
E|--------------------------------------------------------------------------|
                                                                      
E|-15-------------------17-15-------17-15-----------------------------------| (x2)
B|----17-15----------15-------17-15-----------------------------------------|
G|----------17-14-17--------------------------------------------------------|
D|--------------------------------------------------------------------------|
A|--------------------------------------------------------------------------|
E|--------------------------------------------------------------------------|
                                                                           
E|-15-14-12-10-12-7------3-----3-----3-----3--------------------------------|
B|-------------------3-5---3-5---3-5---3-5----------------------------------|
G|--------------------------------------------------------------------------|
D|--------------------------------------------------------------------------|
A|--------------------------------------------------------------------------|
E|--------------------------------------------------------------------------|
                     x x   x x   x x   x x

[Verse]
E|-------0------------0------------0----------------------------------------| (x3)
B|----0---0-0------0---0-0------0---0-0------0---0---0---0------------------|
G|---0-0---0-0----0-0---0-0----0-0---0-0------------------------------------|
D|--5---5-----5--7---7-----7--9---9-----9--10---9---4---7-------------------|
A|-3------------5------------7------------8----7---2---5--------------------|
E|--------------------------------------------------------------------------|
                                                                          
E|-------------15----------------15----------------15----------------15-----|
B|-15-17-15-17----17-15-17-15-17----17-15-17-15-17----17-15-17-15-17----17--|
G|--------------------------------------------------------------------------|
D|--------------------------------------------------------------------------|
A|--------------------------------------------------------------------------|
E|--------------------------------------------------------------------------|
   x  x  x  x     x  x  x  x  x     x  x  x  x  x     x  x  x  x  x     x  

[Chorus] (x4)
E|-----15----15----15-------------------------------------------------------| (x3)
B|-17b----17----17----17-15-17-15-17----------------------------------------|
G|--------------------------------------------------------------------------|
D|--------------------------------------------------------------------------|
A|--------------------------------------------------------------------------|
E|--------------------------------------------------------------------------|
                                                                      
E|-15-------------------17-15-------17-15-----------------------------------| (x2)
B|----17-15----------15-------17-15-----------------------------------------|
G|----------17-14-17--------------------------------------------------------|
D|--------------------------------------------------------------------------|
A|--------------------------------------------------------------------------|
E|--------------------------------------------------------------------------|
                                                                           
E|-15-14-12-10-12-7------3-----3-----3-----3--------------------------------|
B|-------------------3-5---3-5---3-5---3-5----------------------------------|
G|--------------------------------------------------------------------------|
D|--------------------------------------------------------------------------|
A|--------------------------------------------------------------------------|
E|--------------------------------------------------------------------------|
                     x x   x x   x x   x x

[Solo]
E|-12-10----10--------------------------------------------------------------|
B|-------12----12-10-12-10-8-10-8-7-8-7-5-8b-10brb-8------------------------|
G|--------------------------------------------------------------------------|
D|--------------------------------------------------------------------------|
A|--------------------------------------------------------------------------|
E|--------------------------------------------------------------------------|
                                                                          
E|-------------------------------6-7-----6-7-----6-12b-7-12-15-19-14--------|
B|-------------------5---5-7-5-7-----5-7-----5-7----------------------------|
G|-----4---4-7-4-7-4---7----------------------------------------------------|
D|-4-7---7------------------------------------------------------------------|
A|--------------------------------------------------------------------------|
E|--------------------------------------------------------------------------|
                                                                         
E|-12-15-12----12----14-15-14----14----14-15-14----------------------14-15--|
B|----------15----15----------17----17----------15----------------15--------|
G|-------------------------------------------------14----------14-----------|
D|----------------------------------------------------17-14-17--------------|
A|--------------------------------------------------------------------------|
E|--------------------------------------------------------------------------|
                                                                      
E|-15-17-10-12-7-10-5-7-5-0-------------------------------------------------|
B|--------------------------------------------------------------------------|
G|--------------------------------------------------------------------------|
D|--------------------------------------------------------------------------|
A|--------------------------------------------------------------------------|
E|--------------------------------------------------------------------------|

[Chorus] (x4)
E|-----15----15----15-------------------------------------------------------| (x3)
B|-17b----17----17----17-15-17-15-17----------------------------------------|
G|--------------------------------------------------------------------------|
D|--------------------------------------------------------------------------|
A|--------------------------------------------------------------------------|
E|--------------------------------------------------------------------------|
                                                                      
E|-15-------------------17-15-------17-15-----------------------------------| (x2)
B|----17-15----------15-------17-15-----------------------------------------|
G|----------17-14-17--------------------------------------------------------|
D|--------------------------------------------------------------------------|
A|--------------------------------------------------------------------------|
E|--------------------------------------------------------------------------|
                                                                           
E|-15-14-12-10-12-7------3-----3-----3-----3--------------------------------|
B|-------------------3-5---3-5---3-5---3-5----------------------------------|
G|--------------------------------------------------------------------------|
D|--------------------------------------------------------------------------|
A|--------------------------------------------------------------------------|
E|--------------------------------------------------------------------------|
                     x x   x x   x x   x x

[Outro]
E|-------------14-17-14----------------------14-17-14-----------------------|
B|----------15----------15----------------15----------15--------------------|
G|-------14----------------14----------14----------------14-----------------|
D|-14-16----------------------16-14-16----------------------16--------------|
A|--------------------------------------------------------------------------|
E|--------------------------------------------------------------------------|
                                                                           
E|---------8-12-15-12-8--------------8-12-15-12-8---------------------------|
B|------10--------------10--------10--------------10------------------------|
G|----9--------------------9----9--------------------9----------------------|
D|-10------------------------10------------------------10-------------------|
A|--------------------------------------------------------------------------|
E|--------------------------------------------------------------------------|
                                                                             
E|-------7-10-7-----------7-10-7-----------7-10-7-----------7-10-7----------|
B|-----8--------8-------8--------8-------8--------8-------8--------8--------|
G|---9------------9---9------------9---9------------9---9------------9------|
D|-7----------------7----------------7----------------7----------------7----|
A|--------------------------------------------------------------------------|
E|--------------------------------------------------------------------------|
                                                                          
E|----------10-14-10----------------10-14-10----------------10-14-----------| (x2)
B|-------12----------12----------12----------12----------12-----------------|
G|----11----------------11----11----------------11----11--------------------|
D|-12----------------------12----------------------12-----------------------|
A|--------------------------------------------------------------------------|
E|--------------------------------------------------------------------------|


************************************

| /  Slide up
| b  Bend 

************************************

            
            
Suggest correction
Creating personal tab
Creating personal tab
You can edit any tab online and save it as your Personal.

You can edit, replace or remove any tab part or add personal notes – all changes will be seen only by you.

Personal tabs can be accessed anytime from any device, even offline.
Learn more »
comments
print report bad tab
2 comments total.
0 reply
wdubyaw 10 Apr 15, 2013 10:28 AM

Where's the chorus part for the rhythm guitar?

0 reply
amun130 249 Jun 21, 2015 02:51 AM

There's third guitar in the intro that comes in at 0:07

E|-------------------------------------------------------/12-10---------|
B|--8/12-10-8----------/12-13-10--12-10-8-10-10/12-10-8---------13-12---|
G|7-----------/9-7-10-9-------------------------------------------------|
D|----------------------------------------------------------------------|
A|----------------------------------------------------------------------|
E|----------------------------------------------------------------------|

guest
You may want to rate the tab now too:
select rating
Wanna post a correction for this tab? Suggest correction