Oops, an error
Loading. Please wait.

Devils Choir Bass Tab

version 1
version 1

Whole song

Interactive

2,014 views 1 this week
no commentswrite comment
1 2 3 4 5
please rate
add to favorites
launch autoscroll
font size
0
reset
guitar tuner
Autoscroll
slow
fast
+/-
esc
set tempo
stop
Help us to improve Ultimate-Guitar.com Take our survey!
×
Author
Tuning
C# G# C# F# A# D#
F#|-----------------------------------------------------------------------------|
C#|-----------------------------------------------------------------------------|
G#|-0---0-0-0-0---0---0--0--0--0--0-------------------------5---5---------------|
C#|-----------------------------------5---3---3-3-3-3---3-----------2--2--2--2--|

F#|-----------------------------------------------------------------------------|
C#|-----------------------------------------------------------------------------|
G#|-0---0-0-0-0---0---0--0--0--0--0---------------------------------------------|
C#|-----------------------------------5---3-----------------2-------------------|

0:09
F#|-----------------------------------------------------------------|
C#|-----------------------------------------------------------------|
G#|-0---0-2-3-2-3-2-0---0-2-3-2-3-2-----------------5-5-5-5-7-5-3-5-|
C#|---5---------------5-------------3-3-3-3-3-3-3-3-----------------|
    1 + 2 + 3 + 4 + 1 + 2 + 3 + 4 + 1 + 2 + 3 + 4 + 1 + 2 + 3 + 4 +

F#|-----------------------------------------------------------------|
C#|-----------------------------------------------------------------|
G#|-0---0-2-3-2-3-2-0---0-2-3-2-3-2-------------------------7-\-----|
C#|---5---------------5-------------3-----------3---2---------------|
    1 + 2 + 3 + 4 + 1 + 2 + 3 + 4 + 1 + 2 + 3 + 4 + 1 + 2 + 3 + 4 +

0:20
F#|-----------------------------------------------------------------|
C#|-----------------------------------------------------------------|
G#|-0---0-2-3-2-3-2-0---0-2-3-2-3-2-----------------5-5-5-5-7-5-3-5-|
C#|---5---------------5-------------3-3-3-3-3-3-3-3-----------------|
    1 + 2 + 3 + 4 + 1 + 2 + 3 + 4 + 1 + 2 + 3 + 4 + 1 + 2 + 3 + 4 +

F#|-----------------------------------------------------------------|
C#|-----------------------------------------------------------------|
G#|-0---0-2-3-2-3-2-0---0-2-3-2-3-2-------------------------7-\-----|
C#|---5---------------5-------------3---------------2---------------|
    1 + 2 + 3 + 4 + 1 + 2 + 3 + 4 + 1 + 2 + 3 + 4 + 1 + 2 + 3 + 4 +

0:30
F#|-----------------------------------------------------------------|
C#|-----------------------------------------------------------------|
G#|-------------------3-3---3---3---2-----2-2-----------------------|
C#|-3-------3---3-------------------------------4---7-7-7---5-5-5-5-|
    1 + 2 + 3 + 4 + 1 + 2 + 3 + 4 + 1 + 2 + 3 + 4 + 1 + 2 + 3 + 4 +

F#|-----------------------------------------------------------------|
C#|-----------------------------------------------------------------|
G#|-------------------3-3---3-3-3---2-----2-2-----------------------|
C#|-3-------3---3-------------------------------4---7-7-7---5-5-5-5-|
    1 + 2 + 3 + 4 + 1 + 2 + 3 + 4 + 1 + 2 + 3 + 4 + 1 + 2 + 3 + 4 +

F#|-----------------------------------------------------------------|
C#|-----------------------------------------------------------------|
G#|-----------------------------------------------------------------|
C#|-3---3-/-15--\---4---4-/-16--\---5---5-/-17--\---7---7---5---5---|
    1 + 2 + 3 + 4 + 1 + 2 + 3 + 4 + 1 + 2 + 3 + 4 + 1 + 2 + 3 + 4 +

F#|-----------------------------------------------------------------|
C#|-----------------------------------------------------------------|
G#|-------------------3-3---3---3---2-----2-2-----------------------|
C#|-3-------3---3-------------------------------4---7---7---5---5---|
    1 + 2 + 3 + 4 + 1 + 2 + 3 + 4 + 1 + 2 + 3 + 4 + 1 + 2 + 3 + 4 +

0:50
F#|-------------------------------------------------------------------|
C#|o-----------------------------------------------------------------o|
G#|o---------------------0-2-3-2-0-----------------------------------o|
C#|--3---3-------------5-----------5-7---7-----------5---5-5-7-5-3-5--|
     1 + 2 + 3 + 4 + 1 + 2 + 3 + 4 + 1 + 2 + 3 + 4 + 1 + 2 + 3 + 4 +

Rest

1:05
F#|---------------------------------------------------------------------|
C#|-------------------------------------------------------------2-0-----|
G#|-----0---0-2-3-2-3-2-0---0-2-3-2-3-2-------------0---------------3-2-|
C#|-5-5---5---------------5-------------3---------------2---------------|
    4 + 1 + 2 + 3 + 4 + 1 + 2 + 3 + 4 + 1 + 2 + 3 + 4 + 1 + 2 + 3 + 4 +

F#|-----------------------------------------------------------------|
C#|-----------------------------------------------------------------|
G#|-0---0-2-3-2-3-2-0---0-2-3-2-3-2-----------------5-5-5-5-7-5-3-5-|
C#|---5---------------5-------------3-3-3-3-3-3-3-3-----------------|
    1 + 2 + 3 + 4 + 1 + 2 + 3 + 4 + 1 + 2 + 3 + 4 + 1 + 2 + 3 + 4 +

F#|-----------------------------------------------------------------|
C#|-----------------------------------------------------------------|
G#|-0---0-2-3-2-3-2-0---0-2-3-2-3-2-----------------------/-7---7---|
C#|---5---------------5-------------3-----/-12-/15--2---------------|
    1 + 2 + 3 + 4 + 1 + 2 + 3 + 4 + 1 + 2 + 3 + 4 + 1 + 2 + 3 + 4 +

1:21
F#|-----------------------------------------------------------------|
C#|-----------------------------------------------------------------|
G#|-------------------3-3---3---3---2-----2-2-----------------------|
C#|-3-------3---3-------------------------------4---7-7-7---5-5-5-5-|
    1 + 2 + 3 + 4 + 1 + 2 + 3 + 4 + 1 + 2 + 3 + 4 + 1 + 2 + 3 + 4 +

F#|-----------------------------------------------------------------|
C#|-----------------------------------------------------------------|
G#|-------------------3-3---3-3-3---2-----2-2-----------------------|
C#|-3-------3---3-------------------------------4---7-7-7---5-5-5-5-|
    1 + 2 + 3 + 4 + 1 + 2 + 3 + 4 + 1 + 2 + 3 + 4 + 1 + 2 + 3 + 4 +

F#|-----------------------------------------------------------------|
C#|-----------------------------------------------------------------|
G#|-----------------------------------------------------------------|
C#|-3---3-/-15--\---4---4-/-16--\---5---5-/-17--\---7---7---5---5---|
    1 + 2 + 3 + 4 + 1 + 2 + 3 + 4 + 1 + 2 + 3 + 4 + 1 + 2 + 3 + 4 +

F#|-----------------------------------------------------------------|
C#|-----------------------------------------------------------------|
G#|-------------------3-3---3---3---2-----2-2-----------------------|
C#|-3-------3---3-------------------------------4---7---7---5---5---|
    1 + 2 + 3 + 4 + 1 + 2 + 3 + 4 + 1 + 2 + 3 + 4 + 1 + 2 + 3 + 4 +

1:42
F#|-----------------------------------------------------------------|
C#|-----------------------------------------------------------------|
G#|-0-----------2h3-----------------------------------------3-2-0---|
C#|-----------------5---5---5---5---3-----------3h5-2---2---------5-|
    1 + 2 + 3 + 4 + 1 + 2 + 3 + 4 + 1 + 2 + 3 + 4 + 1 + 2 + 3 + 4 +

F#|-----------------------------------------------------------------|
C#|-----------------------------------------------------------------|
G#|-0-----------2h3-----------------------------------------3-2-0---|
C#|-----------------5---5---5---5---3-----------3h5-2-2-2-2-------5-|
    1 + 2 + 3 + 4 + 1 + 2 + 3 + 4 + 1 + 2 + 3 + 4 + 1 + 2 + 3 + 4 +

1:52
F#|-----------------------------------------------------------------|
C#|-----------------------------------------------------------------|
G#|-0---0-0-0-0-0-0-0-0-0-0-0-0-0-0---------------------------------|
C#|---------------------------------3---3-3-3-3-3-3-3-3-3-3-3-3-3-3-|
    1 + 2 + 3 + 4 + 1 + 2 + 3 + 4 + 1 + 2 + 3 + 4 + 1 + 2 + 3 + 4 +

F#|-----------------------------------------------------------------|
C#|-----------------------------------------------------------------|
G#|-5-5-5-5-5-5-5-5-5-5-5-5-5-5-5-5-7-7-7-7-7-7-7-7-7-7-8-7-8-7-3-2-|
C#|-----------------------------------------------------------------|
    1 + 2 + 3 + 4 + 1 + 2 + 3 + 4 + 1 + 2 + 3 + 4 + 1 + 2 + 3 + 4 +

2:03
F#|---------------------------------------------------------------------------------|
C#|---------------------------------------------------------------------------------|
G#|-0---0-0-0-0-0-------------3-3---5---5-5-5-5-5-----------------------------------|
C#|-----------------3---3-3-3-----------------------2-2-2-2-2-2-2-2-5-5-5-5-5-5-5-5-|
    1 + 2 + 3 + 4 + 1 + 2 + 3 + 4 + 1 + 2 + 3 + 4 + 1 + 2 + 3 + 4 +

Rest

2:14
F#|---------------------------------------------------------------------------------|
C#|---------------------------------------------------------------------------------|
G#|-----------------------------------3-3---3-3-3---2-----2-2-----------------------|
C#|-7-/-19\-7--/19\-3-------3---3-------------------------------4---7-7-7---5-5-5-5-|
    3   +   4   +   1 + 2 + 3 + 4 + 1 + 2 + 3 + 4 + 1 + 2 + 3 + 4 + 1 + 2 + 3 + 4 +

F#|-----------------------------------------------------------------|
C#|-----------------------------------------------------------------|
G#|-----------------------------------------2-----------------------|
C#|-3---3-----------5---5-----------5---5-----------7---7---5-------|
    1 + 2 + 3 + 4 + 1 + 2 + 3 + 4 + 1 + 2 + 3 + 4 + 1 + 2 + 3 + 4 +

F#|-----------------------------------------------------------------|
C#|-----------------------------------------------------------------|
G#|-------------------3-3---3-3-3---2-----2-2-----------------------|
C#|-3-------3---3-------------------------------4---7-7-7-7-5-5-5-5-|
    1 + 2 + 3 + 4 + 1 + 2 + 3 + 4 + 1 + 2 + 3 + 4 + 1 + 2 + 3 + 4 +

2:30
F#|-----------------------------------------------------------------|
C#|-----------------------------------------------------------------|
G#|-----------------3---3---3---3---2-------2-----------------------|
C#|-3-------3---------------------------------------7-7-7-7-5-5-5-5-|
    1 + 2 + 3 + 4 + 1 + 2 + 3 + 4 + 1 + 2 + 3 + 4 + 1 + 2 + 3 + 4 +

F#|-----------------------------------------------------------------|
C#|-----------------------------------------------------------------|
G#|-----------------3---3---3---3---2---2---2---2-------------------|
C#|-3---3---3---3-----------------------------------7-7-7-7-5-5-5-5-|
    1 + 2 + 3 + 4 + 1 + 2 + 3 + 4 + 1 + 2 + 3 + 4 + 1 + 2 + 3 + 4 +

F#|-----------------------------------------------------------------|
C#|-----------------------------------------------------------------|
G#|-----------------------------------------------------------------|
C#|-3-3-3-3-3-3-3-3-5-5-5-5-5-5-5-5-5-5-5-5-5-5-5-5-7-7-7-7-5-5-5-5-|
    1 + 2 + 3 + 4 + 1 + 2 + 3 + 4 + 1 + 2 + 3 + 4 + 1 + 2 + 3 + 4 +

F#|-----------------------------------------------------------------------|
C#|-----------------------------------------------------------------------|
G#|-----------------3-3-3-3-3-3-3-3-2-2-2-2-2-2-2-2-----------------------|
C#|-3-3-3-3-3-3-3-3---------------------------------7-7-7-7-5-5-5-5-7-\---|
    1 + 2 + 3 + 4 + 1 + 2 + 3 + 4 + 1 + 2 + 3 + 4 + 1 + 2 + 3 + 4 +
Tabbed by Dave Vucko
Suggest correction
Give kudos to tab author, rate the tab!
1 2 3 4 5
comments
print report bad tab
guest
You may want to rate the tab now too:
select rating
Please do not post tabs as comments. Select "correction" instead!