Oops, an error
Loading. Please wait.

Done For You Bass Tab

version 1
version 1

Whole song

Interactive

880 views 1 this week
no commentswrite comment
1 2 3 4 5
2 more votes to show rating
add to favorites
launch autoscroll
font size
0
reset
guitar tuner
Autoscroll
slow
fast
+/-
esc
set tempo
stop
Help us to improve Ultimate-Guitar.com Take our survey!
×
Author
Tuning
C# G# C# F# A# D#
0:36
F#|-----------------------------------------------------------------|
C#|-----------------------------------------------------------------|
G#|-4---------------6---------------1-------------------------------|
C#|-------------------------------------------------3-----------3---|
    1 + 2 + 3 + 4 + 1 + 2 + 3 + 4 + 1 + 2 + 3 + 4 + 1 + 2 + 3 + 4 +

F#|-----------------------------------------------------------------|
C#|-----------------------------------------------------------------|
G#|-----------------------------------------------------------------|
C#|-4---------------6---------------8-------------------------------|
    1 + 2 + 3 + 4 + 1 + 2 + 3 + 4 + 1 + 2 + 3 + 4 + 1 + 2 + 3 + 4 +

0:59
F#|-----------------------------------------------------------------|
C#|-----------------------------------------------------------------|
G#|-4-----------4---------------------------------------------------|
C#|-----------------6-----------6---8-----------\---4-------4-4-4-4-|
    1 + 2 + 3 + 4 + 1 + 2 + 3 + 4 + 1 + 2 + 3 + 4 + 1 + 2 + 3 + 4 +

F#|-----------------------------------------------------------------|
C#|---------------------------------------------------------4-3-1---|
G#|-4-----------4-------------------------------------------------4-|
C#|-----------------6-----------6---8-----------\---4---------------|
    1 + 2 + 3 + 4 + 1 + 2 + 3 + 4 + 1 + 2 + 3 + 4 + 1 + 2 + 3 + 4 +

1:23
F#|-----------------------------------------------------------------|
C#|-----------------------------------------------------------------|
G#|-----------------4-------------------------------4---------------|
C#|-4-------6-----------------------4-------6-------------------6---|
    1 + 2 + 3 + 4 + 1 + 2 + 3 + 4 + 1 + 2 + 3 + 4 + 1 + 2 + 3 + 4 +


F#|-------------------------------------------------|
C#|-------------------------------------------------|
G#|-------------------------------------------------|
C#|-4-------------------------4-4-4-4-4-4-4-4-4-4-6-|
    1 + 2 + 3 + 4 + 1 + 2 + 3 + 4 + 1 + 2 + 3 + 4 + 

F#|-----------------------------------------------------------------|
C#|-----------------------------------------------------------------|
G#|-4-4-4-4-4---4-4-------------------------------------------------|
C#|-----------6-----6-6-6-6-6-6-6-6-8-8-8-8-8-8-8-8-4-4-4-4-4-4-4-4-|
    1 + 2 + 3 + 4 + 1 + 2 + 3 + 4 + 1 + 2 + 3 + 4 + 1 + 2 + 3 + 4 +

F#|-----------------------------------------------------------------|
C#|-----------------------------------------------------------------|
G#|-4-4-4-4-4-4-4-4-------------------------------------------------|
C#|-----------------6-6-6-6-6-6-6-6-8-8-8-8-8-8-6-6-4-------4-------|
    1 + 2 + 3 + 4 + 1 + 2 + 3 + 4 + 1 + 2 + 3 + 4 + 1 + 2 + 3 + 4 +

2:04
F#|-----------------------------------------------------------------|
C#|-----------------------------------------------------------------|
G#|-1---------------3---------------4-------------------------------|
C#|-------------------------------------------------4---------------|
    1 + 2 + 3 + 4 + 1 + 2 + 3 + 4 + 1 + 2 + 3 + 4 + 1 + 2 + 3 + 4 +

F#|-----------------------------------------------------------------|
C#|-----------------------------------------------------------------|
G#|-1---------------3-----------------------------------------------|
C#|---------------------------------4-------------------------------|
    1 + 2 + 3 + 4 + 1 + 2 + 3 + 4 + 1 + 2 + 3 + 4 + 1 + 2 + 3 + 4 +
Tabbed by Dave Vucko
Suggest correction
Give kudos to tab author, rate the tab!
1 2 3 4 5
comments
print report bad tab
guest
You may want to rate the tab now too:
select rating
Wanna post a correction for this tab? Suggest correction