Oops, an error
Loading. Please wait.

Faithless Tab

version 1
version 1

Whole song

  • Tabbed from Jake Pitts' (Lead guitarist in Black Veil Brides) Guitar Lesson.

Interactive

14,686 views 48 this week
9 commentsread comments
1 2 3 4 5
x 5
add to favorites
launch autoscroll
font size
0
reset
how to read this tab
guitar tuner
×
Best way to learn
"Faithless"
Autoscroll
slow
fast
+/-
esc
set tempo
stop
Author
Tuning
  follow
C G C F A D
-------------------------------------------------------------------------------
                             FAITHLESS - BLACK VEIL BRIDES
-------------------------------------------------------------------------------
Tabbed by: Anasky
E-mail: Mads@mik86.dk

Tuning: Drop C

Hello guys, I decided to try tapping Black Veil Brides newest song "Faithless". It may 
not be accurate
because i tried to tap it from Jake Pitts' lesson on Youtube (
https://www.youtube.com/watch?v=HZNdYQ1GWIE )
Any corrections and suggestions to another tab is greatly appreciated!

I would suggest that you click the Youtube link above and try to play along with Jake,
otherwise it can seem
pretty chaotic.

ENJOY!


[Intro]

D|---------------------------------------------------------------------------|
A|---------------------------------------------------------------------------|
F|---------------------------------------------------------------------------|
C|---------------------------------------------------------------------------|
G|-------6----3-5-----6-----3-5----------------------------------------------|
C|0--0-0---0-0----0-0---0-0------5-3-1-0-------------------------------------|


D|---------------------------------------------------------------------------|
A|---------------------------------------------------------------------------|
F|---------------------------------------------------------------------------|
C|---------------------------------------------------------------------------|
G|-------6-----3-5-----6----3-5---9h10p9h10p9h10-6h10p6h10p6h10--------------|
C|0--0-0---0-0-----0-0---0-0-------------------------------------------------|
                                  ^                           ^
(Right before the verse comes, you mute the last hammer on / pull off part)


[Verse]

D|---------------------------------------------------------------------------|
A|---------------------------------------------------------------------------|
F|---------------------------------------------------------------------------|
C|--------------------------5-----3------------------------------------------|
G|----5-----3-5-----8-----7--------------5-3-----5-----3-5-------3-0-3-6-5-3-|
C|0-0---0-0-----0-0---0-0-----0-0---0-0------0-0---0-0-----0-0---3-0-3-6-5-3-|

D|---------------------------------------------------------------------------|
A|---------------------------------------------------------------------------|
F|---------------------------------------------------------------------------|
C|--------------------------5-----3------------------------------------------|
G|----5-----3-5-----8-----7--------------5-3-----5-----3-5-------3-0-3-6-5-3-|
C|0-0---0-0-----0-0---0-0-----0-0---0-0------0-0---0-0-----0-0---3-0-3-6-5-3-|


[Pre-Chorus]

D|------------------------------------------------------------------------------|
A|------------------------------------------------------------------------------|
F|------------------------------------------------------------------------------|
C|7-7-------------------------7-7-----------------------7-7---------------------|
G|5-5-6-6-5-------------------5-5-6-6-5-----------------5-5-6-6-----------------|
C|5-5-6-6-5--3-5-3-6-5-3-0----5-5-6-6-5--3-5-3-6-5-3----5-5-6-6-5--3-5-3-6-5-3--|
                                         x x x x x x
D|---------------------------------------------------------------------------|
A|---------------------------------------------------------------------------|
F|---------------------------------------------------------------------------|
C|3-3-----7-77-7777----------------------------------------------------------|
G|1-1-2-2-4-44-4444----------------------------------------------------------|
C|1-1-----4-44-4444----------------------------------------------------------|


[Chorus]

D|---------------------------------------------------------------------------|
A|---------------------------------------------------------------------------|
F|---------------------------------------------------------------------------|
C|77777777--8888888----------------------------------------------------------|
G|55555555--8888888--3333333--7777777--------7---7-10-8-7--------------------|
C|----------8888888--3333333--7777777---7-10---10----------------------------|

After the chorus, go back and play the intro and add a pinching noice at 3rd fret 6th string.


[Breakdown]

D|--7+(Whammy)---------------------------------------------------------------|
A|---------------------------------------------------------------------------|
F|---------------------------------------------------------------------------|
C|---------------------------------------------------------------------------|
G|0------0-0-000-000-000-00-000-000-000-------3------------------------------|
C|0------0-0-000-000-000-00-000-000-000--6-5-3--1----------------------------|
You can add a harmonic pinch at the high e string on the 7th fret and bend it with a 
Whammy Bar

D|---------------------------------------------------------------------------|
A|---------------------------------------------------------------------------|
F|---------------------------------------------------------------------------|
C|---------------------------------------------------------------------------|
G|0-0-000-000-000-0-0-000-000-000--------------------------------------------|
C|0-0-000-000-000-0-0-000-000-000--3p0h3-6-5-1-0-----------------------------|


[Solo]

D|-------------------------------------------------------------------------------|
A|(18)-15-13-10------------------------------------------------------------------|
F|-------------------------------------------------------------------------------|
C|-------------------------------------------------------------------------------|
G|-------------------------------------------------------------------------------|
C|-------------------------------------------------------------------------------|
You are going to start the tapping on the B string on the 18th fret.
In-between the parts he is doing a double tap on the 18th fret.
(Watch the video, it is a lot easier than watching this)

Diminised String Skip Tap - The fret you are tapping on are marked with a ()
D|-(13)-10-7------------(17)-13-9------------(19)-16-13---20b----------------|
A|---------------------------------------------------------------------------|
F|---------(13)-10-7--------------(17)-13-9----------------------------------|
C|---------------------------------------------------------------------------|
G|---------------------------------------------------------------------------|
C|---------------------------------------------------------------------------|

This part is not tapping, but just regular picking.
D|-20h22p20-17---------------------------------------------------------------|
A|-------------21--------9---9-----------9-12----9---------------------------|
F|-------------------/12---12--12-13-12b------12---12------------------------|
C|---------------------------------------------------------------------------|
G|---------------------------------------------------------------------------|
C|---------------------------------------------------------------------------|


[Sweep Part]

D|-------------12-15-12-------------------------11-17b-----------------------|
A|-----------13--------13---------------------15-----------------------------|
F|--------14-------------14-----------------14-------------------------------|
C|------14----------------14--------------15---------------------------------|
G|12h15---------------------15p12/--14h17------------------------------------|
C|---------------------------------------------------------------------------|

Lead part after solo:
D|-15-9-14-----9-------------------------------------------------------------|
A|----------13----13---------------------------------------------------------|
F|--------------15-----------------------------------------------------------|
C|---------------------------------------------------------------------------| 
G|---------------------------------------------------------------------------|
C|---------------------------------------------------------------------------|(x8)

D|---------------------------------------------------------------------------|
A|---------------------------------------------------------------------------|
F|12-14-12-14-9-12-----------------------------------------------------------|
C|-----------------15-12-----------------------------------------------------|
G|---------------------------------------------------------------------------|
C|---------------------------------------------------------------------------|


[Breakdown Riff and Outro]

D|---------------------------------------------------------------------------|
A|---------------------------------------------------------------------------|
F|---------------------------------------------------------------------------|
C|---------------------------------------------------------------------------|
G|----3----------------------------------------------------------------------|
C|0-0-3-0-3/6-5-3-3-0-0-3/6-3b-----------------------------------------------| (x4) End
the song with an open E
                    x x


************************************

| /   slide up
| \   slide down
| h   hammer-on
| p   pull-off
| ~   vibrato
| +   harmonic
| x   Mute note
| b   Bend

************************************
Suggest correction
comments
print report bad tab
9 comments total. Showing first comments.
+1 reply
Syn_Pitts 20 Sep 17, 2014 10:45 AM

Beast tab. Jake Pitts released a video on how to play this song but by tabs is sooooo much easier. And less than 24 hours since I submitted a request for it. Great job dude!! =D

0 reply
lucas_caseiro 10 Sep 25, 2014 10:02 AM, edited at 02:03 pm

Just a quick correction, the Verse part i'ts actually:D|---------------------------------------------------------------------------|A|---------------------------------------------------------------------------|F|---------------------------------------------------------------------------|C|--------------------------5-----3------------------------------------------|G|----5-----3-5-----8-----7--------------5-3-----5-----3-5-------3-0-3-6-5-3-|C|0-0---0-0-----0-0---0-0-----0-0---0-0------0-0---0-0-----0-0---3-0-3-6-5-3-|
Great job tabbing it, dude, best one i've found =]

0 reply
lucas_caseiro 10 Sep 28, 2014 09:33 AM

I dont know what happened, sorry =/
C|--------------------------5-----3------------------------------------------|
G|----5-----3-5-----8-----7--------------5-3-----5-----3-5-------3-0-3-6-5-3-|
C|0-0---0-0-----0-0---0-0-----0-0---0-0------0-0---0-0-----0-0---3-0-3-6-5-3-|

guest
You may want to rate the tab now too:
select rating
Wanna post a correction for this tab? Suggest correction