Oops, an error
Loading. Please wait.
We have Chord Pro version of Fallen Angels.
It's the closest thing you can get to the original song and it has interactive parts. Check out the tab »
×
8,616 views 3 this week
1 commentread comment
1 2 3 4 5
x 4
add to favorites
launch autoscroll
font size
0
reset
how to read this tab
guitar tuner
backing track
0:00
0:00
Autoscroll
slow
fast
+/-
esc
set tempo
stop
Difficulty
Tuning
intermediate
C G C G C E
hey this is my solo: again im deanil vincent please subscribe at my youtube account
http://www.youtube.com/user/deanileifronzzX?feature=mhee thanks alot, and facebook account
deanilvincent_13@yahoo.com! God bless all, im here to give u a new tabs,im not that kind 
of guitarist that will keep my own tabs. I have to share it that way God shared to me! GOD
BLESS US!! PROUDLY PILIPINO!!



|-----------------------------------------------------------------------------|
|---------14----14^-12b—13*-13^--11------10/12-10*(pull up to make nc sound---|
|-----------------------------------------------------------------------------|
|--12-12-----12---------------------------------------------------------------|
|-----------------------------------------------------------------------------|
|-----------------------------------------------------------------------------|

|----------------------------------------------------------------------------------|
|--10/12-10-------------14-----14^-12—13*13^--13(play this while pulling up--------|
|-----------12---------------------------------------------------------------------|
|----------------12--12----12------------------------------------------------------|
|----------------------------------------------------------------------------------|
|----------------------------------------------------------------------------------|

|----------------------------17----15b---------------------------------------------|
|----------------------------------------------------------------------------------|
|----------------------------------------------------------------------------------|
|------------14---15--17-----------------------------------------------------------|
|-12--14--15-----------------------------------------------------------------------|
|----------------------------------------------------------------------------------|

|-----11-13-15-11-13-15------------------------|
|-----------------------13-15-16-1315-16-------|
|----------------------------------------------|
|----------------------------------------------|
|----------------------------------------------|
|----------------------------------------------|

|-10-11-13-10-11-13---------------------8-10-11-8-10-11--------------------|
|-------------------11-13-15--11--13-15-----------------10-11-13-10-11-13--|
|--------------------------------------------------------------------------|
|--------------------------------------------------------------------------|
|--------------------------------------------------------------------------|
|--------------------------------------------------------------------------|

|--------------------------------------------------------------------------|
|-13-11-10-11-10---------------------------15------------------------------|
|----------------12--14--12-10---------------------------------------------|
|-------------------------------12^*---12^----12---------------------------|
|--------------------------------------------------------------------------|
|--------------------------------------------------------------------------|

|--------------------------------------------------------------------------|
|--15--20-20-20-20/15-15-15—15/-16-16-16-16--18-18-18--18-18---------------|
|--------------------------------------------------------------------------|
|--------------------------------------------------------------------------|
|--------------------------------------------------------------------------|
|--------------------------------------------------------------------------|

|--------------------------------------------------------------------------|
|---18-13-13-13-13-15-15-15-15—11^^^^^^^^^^^^^-----------------------------|
|--------------------------------------------------------------------------|
|--------------------------------------------------------------------------|
|--------------------------------------------------------------------------|
|--------------------------------------------------------------------------|

|--------------------------------------------------------------------------|
|--------------------------------------------------------------------------|
|--------------------------------------------------------------------------|
|---HAMMER ONNNNNNNNNNN----------------------------------------------------|
|--------------------------------------------------------------------------|
|--------------------------------------------------------------------------|

thanks alot and God bless, HAve fun!

^_^ we can be friends!
Suggest correction
comments
print report bad tab
1 comment total.
0 reply
Emo Fag Kid 71 Jul 08, 2011 02:41 AM

This is just......wrong

guest
You may want to rate the tab now too:
select rating
Wanna post a correction for this tab? Suggest correction