Oops, an error
Loading. Please wait.

Fallen Angels Tab

version 2
version 2

Whole song

83,955 views 90 this week
11 commentsread comments
1 2 3 4 5
x 30
add to favorites
launch autoscroll
font size
0
reset
how to read this tab
guitar tuner
Autoscroll
slow
fast
+/-
esc
set tempo
stop
Help us to improve Ultimate-Guitar.com Take our survey!
×
Author
-------------------------------------------------------------------------------
                             Fallen Angels - Black Veil Brides
-------------------------------------------------------------------------------
Tabbed by:Luke Robbins
Email:lukerobbins22@gmail.com

CHECK OUT MY BAND ON FACEBOOK! DROP US A LIKE! www.facebook.com/TheseDaysAreNumbered

Tuning:Drop C# (Low to High)- C# G# C# F# A# D#

Guitar 1- Jake Pitts-Lead
Guitar 2- Jinxx-Lead (Harmonies)
Guitar 3- Rhythm (Underneath harmonies)

[Intro]

Guitar 1
e|---------------------------------------------------------------------------|
B|---------------------------------------------------------------------------|
G|---/12-----12-12/15-14-10~--------12/15-14-7~-----12/15-14-15-14--11-12----|
D|x\-----12------------------12-----------------12---------------------------|
A|x\-------------------------------------------------------------------------|
E|x\-------------------------------------------------------------------------|

e|------------------------------------------12-13-14-15----------------------|
B|------------11-13-14-15-14-13-11-13-14-15----------------------------------|
G|11-12-14-12----------------------------------------------------------------|
D|---------------------------------------------------------------------------|
A|---------------------------------------------------------------------------|
E|---------------------------------------------------------------------------|

Guitar 2
e|---------------------------------------------------------------------------|
B|---/11-8-11-11/15-13-10~----11/15-13--------11/15-13-15-13-10-11-10-11-13--|
G|-------------------------10----------10~-10--------------------------------|
D|x\-------------------------------------------------------------------------|
A|x\-------------------------------------------------------------------------|
E|x\-------------------------------------------------------------------------|

e|----------------------------------15-16-17-18------------------------------|
B|11--15-16-17-18-17-16-15-16-17-18------------------------------------------|
G|---------------------------------------------------------------------------|
D|---------------------------------------------------------------------------|
A|---------------------------------------------------------------------------|
E|---------------------------------------------------------------------------|

Guitar 3
e|---------------------------------------------------------------------------|
B|---------------------------------------------------------------------------|
G|---------------------------------------------------------------------------|
D|x\-5-5-5555-5-5-5555-1-1-1111-1-1-1111-3-3-3333-3-3-3333-0-0-0000-0-0-0-0--|
A|x\-5-5-5555-5-5-5555-1-1-1111-1-1-1111-3-3-3333-3-3-3333-0-0-0000-0-0-0-0--|
E|x\-5-5-5555-5-5-5555-1-1-1111-1-1-1111-3-3-3333-3-3-3333-0-0-0000-0-0-0-0--|
                                                                    .   .
e|---------------------------------------------------------------------------|
B|---------------------------------------------------------------------------|
G|---------------------------------------------------------------------------|
D|5--------------------------------------------------------------------------|
A|5--------------------------------------------------------------------------|
E|5--------------------------------------------------------------------------|


[Verse]

Guitar 1
e|---------------------------------------------------------------------------|
B|---------------------------------------------------------------------------|
G|------------------------2-2h3-----2-2h3-----2-2h3-----2-2h3-----2-2h3------|
D|5-5-7-7h8-5-5-7-7h8-1-1-------1-1-------3-3-------3-3-------0-0-------3----|
A|5-5-------5-5-------1-1-------1-1-------3-3-------3-3-------0-0-------3----|
E|5-5-------5-5-------1-1-------1-1-------3-3-------3-3-------0-0-------3----|

e|---------------------------------------------------------------------------|
B|---------------------------------------------------------------------------|
G|-------------------------------2-2h3-----2-2h3-----2-2h3-----2-2h3-----2---|
D|3-3-3--5-5-7-7h8-5-5-7-7h8-1-1-------1-1-------3-3-------3-3-------0-0-----|
A|1-3-3--5-5-------5-5-------1-1-------1-1-------3-3-------3-3-------0-0-----|
E|--3-3--5-5-------5-5-------1-1-------1-1-------3-3-------3-3-------0-0-----|

e|---------------------------------------------------------------------------|
B|---------------------------------------------------------------------------|
G|2h3------------------------------------------------------------------------|
D|----3-3--------------------------------------------------------------------|
A|----3-1-1h3p1--------------------------------------------------------------|
E|----3----------------------------------------------------------------------|

Guitar 2
e|---------------------------------------------------------------------------|
B|---------------------------------------------------------------------------|
G|------------------------2-2h3-----2-2h3-----2-2h3-----2-2h3-----2-2h3------|
D|5-5-7-7h8-5-5-7-7h8-1-1-------1-1-------3-3-------3-3-------0-0-------3-3--|
A|5-5-------5-5-------1-1-------1-1-------3-3-------3-3-------0-0-------3-1--|
E|5-5-------5-5-------1-1-------1-1-------3-3-------3-3-------0-0-------3----|

e|---------------------------------------------------------------------------|
B|-----------------------------1-1h3-----1-1h3-----1-1h3-----1-1h3-----1-1h3-|
G|---------5-5h7-----5-5h7---------------------------------------------------|
D|3-3--5-5-------5-5-------1-1-------1-1-------3-3-------3-3-------0-0-------|
A|3-3--5-5-------5-5-------1-1-------1-1-------3-3-------3-3-------0-0-------|
E|3-3--5-5-------5-5-------1-1-------1-1-------3-3-------3-3-------0-0-------|

e|---------------------------------------------------------------------------|
B|---------------------------------------------------------------------------|
G|---------------------------------------------------------------------------|
D|3-3-3h5p3------------------------------------------------------------------|
A|3-1------------------------------------------------------------------------|
E|3--------------------------------------------------------------------------|


[Pre-chorus]

Guitar 1
e|---------------------------------------------------------------------------|
B|---------------------------------------------------------------------------|
G|---------------------------------------------------------------------------|
D|1-1-1111-1-1-1111-3-3-3333--------------1-1-1111-1-1-1111-3-3-3333-3-3-3333|
A|1-1-1111-1-1-1111-3-3-3333----3---1h3p1-1-1-1111-1-1-1111-3-3-3333-3-3-3333|
E|1-1-1111-1-1-1111-3-3-3333-00---0-------1-1-1111-1-1-1111-3-3-3333-3-3-3333|
                             ..   .

Guitar 2
e|---------------------------------------------------------------------------|
B|---------------------------------------------------------------------------|
G|---------------------------------------------------------------------------|
D|1-1-1111-1-1-1111-3-3-3333----5---3h5p3-1-1-1111-1-1-1111-3-3-3333-3-3-3333|
A|1-1-1111-1-1-1111-3-3-3333--------------1-1-1111-1-1-1111-3-3-3333-3-3-3333|
E|1-1-1111-1-1-1111-3-3-3333-00---0-------1-1-1111-1-1-1111-3-3-3333-3-3-3333|
                             ..   .

[Chorus]

Guitar 1
e|---------------------------------------------------------------------------|
B|---------------------------------------------------------------------------|
G|---------------------------------------------------------------------------|
D|5-5-5555-1-1-1111-3-3-3333-3333-2222-5-5-5555-1-1-1111-3-3-3333-3-3-33-12\-|
A|5-5-5555-1-1-1111-3-3-3333-1111-0000-5-5-5555-1-1-1111-3-3-3333-3-3-33-12\-|
E|5-5-5555-1-1-1111-3-3-3333-----------5-5-5555-1-1-1111-3-3-3333-3-3-33-12\-|

e|---------------------------------------------------------------------------|
B|/11----10-11-11-11-13-11-10~-------11-10-11-13-11-10-------11----10-11-11--|
G|----12-----------------------10-12-------------------12-10----12-----------|
D|---------------------------------------------------------------------------|
A|---------------------------------------------------------------------------|
E|---------------------------------------------------------------------------|

e|----------------------------15---------------------------------------------|
B|11-13-11-13/15~-16-15-16-18----18-16----15~--------------------------------|
G|-------------------------------------17------------------------------------|
D|---------------------------------------------------------------------------|
A|---------------------------------------------------------------------------|
E|---------------------------------------------------------------------------|

Guitar 2
e|---------------------------------------------------------------------------|
B|11-11---11-11-11-11--8-8-88-11--11--10--10--10-10-10-10-15-15-15-15-13-13--|
G|x---x---x--x--x--x---x-x-xx-x---x---x---x---x--x--x--x--x--x--x--x--x--x---|
D|8---8---8--8--8--8---5-5-55-8---8---7---7---7--7--7--7--12-12-12-12-10-10--|
A|---------------------------------------------------------------------------|
E|---------------------------------------------------------------------------|

e|---------------------------------------------------------------------------|
B|13-13--11--11--11-11-11-11--8-8-88-11-11--10--10--10--10--10--10--10-5-5-5-|
G|x--x---x---x---x--x--x--x---x-x-xx-x--x---x---x---x---x---x---x---x--x-x-x-|
D|10-10--8---8---8--8--8--8---5-5-55-8--8---7---7---7---7---7---7---7--3-3-3-|
A|---------------------------------------------------------------------------|
E|---------------------------------------------------------------------------|

e|------/10-6-8-10-10-10-11-10-8~-------10-8-10-11-10-8-------10-6-8-10-10-10|
B|6-------------------------------10-11-----------------11-10----------------|
G|x--------------------------------------------------------------------------|
D|3-12\----------------------------------------------------------------------|
A|--12\----------------------------------------------------------------------|
E|--12\----------------------------------------------------------------------|

e|11-10-11/13~-15-13-15-17-18-17-15-13-15~-----------------------------------|
B|---------------------------------------------------------------------------|
G|---------------------------------------------------------------------------|
D|---------------------------------------------------------------------------|
A|---------------------------------------------------------------------------|
E|---------------------------------------------------------------------------|

Guitar 3 (Behind harmony)
e|---------------------------------------------------------------------------|
B|---------------------------------------------------------------------------|
G|---------------------------------------------------------------------------|
D|5-5-5555-1-1-1111-3-3-3333-3333-2222-5-5-5555-1-1-1111-3-3-3333-0-0-0-0-5--|
A|5-5-5555-1-1-1111-3-3-3333-1111-0000-5-5-5555-1-1-1111-3-3-3333-0-0-0-0-5--|
E|5-5-5555-1-1-1111-3-3-3333-----------5-5-5555-1-1-1111-3-3-3333-0-0-0-0-5--|
                                                                  .   .

[1st Solo]

Guitar 1
e|---------------------------------------------------------------------------|
B|---------------------------------------------------------------------------|
G|14-15-15brb17-15~--14-15-14-12-14-14brb16-14~--12-14-12-10-12-12brb14-12~--|
D|---------------------------------------------------------------------------|
A|---------------------------------------------------------------------------|
E|---------------------------------------------------------------------------|

e|----------------------3-5-6-5-6-8-6-8-9-8-9-11-11-13-14-15~----------------|
B|----------------3-5-6------------------------------------------------------|
G|10-12-10--3-5-6------------------------------------------------------------|
D|---------------------------------------------------------------------------|
A|---------------------------------------------------------------------------|
E|---------------------------------------------------------------------------|

Guitar 2
e|---------------------------------------------------------------------------|
B|13-15-15brb15-15~--13-15-13-11-13-13brb15-13~--11-13-11-10-11-11brb13-11~--|
G|---------------------------------------------------------------------------|
D|---------------------------------------------------------------------------|
A|---------------------------------------------------------------------------|
E|---------------------------------------------------------------------------|

e|---------------------------------------------------------------------------|
B|10-11-10-------------------------------------------------------------------|
G|-----------2-2h3-----------------------------------------------------------|
D|---------0-------3-3-3-3-5-------------------------------------------------|
A|---------0-------3-1-3-3-5-------------------------------------------------|
E|---------0-------3---3-3-5-------------------------------------------------|

Guitar 3 just plays the verse


[2nd Solo]

Guitar 1
e|---------------------------------------------------------------------------|
B|---------------------15-13*brb15-------------------------------------------|
G|---14----14brb16-12~-------------15~-14-15-14-14*brb16-12-------14---------|
D|12----12--------------------------------------------------15-12----12------|
A|---------------------------------------------------------------------------|
E|---------------------------------------------------------------------------|

e|----------------------------------------------13h17-15~-15h17h18-15h17h18--|
B|------------13----13/15-15-15~-------------15------------------------------|
G|14brb16-12~----12-----------------------14---------------------------------|
D|-------------------------------------15------------------------------------|
A|-------------------------------12/17---------------------------------------|
E|---------------------------------------------------------------------------|

e|------------------13h15h17-13h15h17-------------------11h13h15-11h13h15----|
B|16h18h20-16h18h20-------------------15h17h18-15h17h18----------------------|
G|---------------------------------------------------------------------------|
D|---------------------------------------------------------------------------|
A|---------------------------------------------------------------------------|
E|---------------------------------------------------------------------------|

e|-----------------------------------------------------15----15/18-18-18-18\-|
B|13h15h16-13h15h16-16-15-13h15p13----13-------------------------------------|
G|---------------------------------15----15-14-12~--12----12-----------------|
D|---------------------------------------------------------------------------|
A|---------------------------------------------------------------------------|
E|---------------------------------------------------------------------------|

e|13-13-13-13/15-15-15-15/17-17-17-17\11-11-11-11/13-13-13-13\10~------------|
B|---------------------------------------------------------------------------|
G|---------------------------------------------------------------------------|
D|---------------------------------------------------------------------------|
A|---------------------------------------------------------------------------|
E|---------------------------------------------------------------------------|

Guitar 2
e|---------------------------------------------------------------------------|
B|---------------------------------------------------------------------------|
G|---------------------------------------------------------------------------|
D|5-5-5555-1-1-1111-3-3-3333-3333-2222-5-5-5555-1-1-1111-3-3-3333-3-3-3333---|
A|5-5-5555-1-1-1111-3-3-3333-1111-0000-5-5-5555-1-1-1111-3-3-3333-3-3-3333---|
E|5-5-5555-1-1-1111-3-3-3333-----------5-5-5555-1-1-1111-3-3-3333-3-3-3333---|

e|---------------------------------------------------------------------------|
B|16h18h20-16h18h20-------------------15h16h18-15h16h18----------------------|
G|------------------17h19h20-17h19h20-------------------15h17h19-15h17h19----|
D|---------------------------------------------------------------------------|
A|---------------------------------------------------------------------------|
E|---------------------------------------------------------------------------|

e|---------------------------------------------------------------------------|
B|13h15h16-13h15h16------------------------------------------------------16--|
G|------------------14h15h17-14h15h17-17-15-14-15-14h15p14-12-14-12~--12-----|
D|---------------------------------------------------------------------------|
A|---------------------------------------------------------------------------|
E|---------------------------------------------------------------------------|

e|---------------------------------------------------------------------------|
B|---16/20-20-20-20\15-15-15-15/16-16-16-16/18-18-18-18\13-13-13-13/15-15-15-|
G|12-------------------------------------------------------------------------|
D|---------------------------------------------------------------------------|
A|---------------------------------------------------------------------------|
E|---------------------------------------------------------------------------|

e|---------------------------------------------------------------------------|
B|15-15\11~------------------------------------------------------------------|
G|---------------------------------------------------------------------------|
D|---------------------------------------------------------------------------|
A|---------------------------------------------------------------------------|
E|---------------------------------------------------------------------------|

Over the harmony, Guitar 3 continues to play the riff that Guitar 2 was playing before it.

Jake and Jinxx pick each note in the solo but I tabbed it as hammer-ons
becauses it's easier to play with hammer-ons and it's clearer to show which notes are 
played quickly together.

After the solo Guitar 1 does a divebomb with the tremolo bar. I don't have one so I'm 
not sure where he plays the harmonic but I think it's natural at 5th fret G string

************************************

| /   slide up
| \   slide down
| h   hammer-on
| p   pull-off
| ~   vibrato
| *   Pinch harmonic
| x   Mute note
| b   Bend
| pb  Pre-bend
| br  Bend release
| pbr Pre-bend release
| brb Bend release bend
| .   Palm mute
| x\  Pick slide

************************************

PLEASE COMMENT AND RATE!!!!!!!!!!!!!!


Song Layout
Intro
Verse
Pre-chorus
Chorus
1st solo
Verse
Pre-chorus
Chorus
2nd Solo
Tremolo Bar
Chorus
Chorus


Lyrics
Scream, Shout
Scream, Shout
We are the fallen angels
We are the in between
Cast down as sons of war
Struck to the Earth like lightning
On this worls we're torn
We won't cause the pain
Of living out their law
Take joy in who you are
We know our wings are flawed
(Woah)
We're bored to death in heaven
And all alone in hell
We only want to be ourselves
We Scream (We Scream)
We Shout (We Shout)
We are the fallen angels
We Scream (We Scream)
We Shout (We Shout)
Woah oh, Woah oh oh oh
To those who sing alone
No need to feel the sorrow
We Scream (We Scream)
We Shout
Woah oh
We are the fallen angels
Follow the mourning star
A light when darkness fell
The passion left unholy
Now you find yourself
We have nowhere to go
Noone to wish us well
A cry to find our home
Our stories they will tell
(Woah)
We're bored to death in heaven
And all alon in hell
We only want to be ourselves
We Scream (We Scream)
We Shout (We Shout)
We are the fallen angels
We Scream (We Scream)
We Shout
Woah oh, Woah oh oh oh
To those who sing alone
No need to feel the sorrow
We Scream (We Scream)
We Shout
Woah oh
We are the fallen angels
Scream, Shout
We are the fallen angels
Scream, Shout
Woah oh, Woah oh oh oh
We Scream (We Scream)
We Shout (We Shout)
We are the fallen angels
We Scream (We Scream)
We Shout
Woah oh, Woah oh oh oh
We Scream
We Shout
We are the fallen angels
We Scream
We Shout
Woah oh, Woah oh oh oh
Woah oh oh oh oh
We Shout
Woah oh
We are the fallen angels
Suggest correction
comments
print report bad tab
11 comments total. Showing first comments.
0 reply
georgeturrell13 10 Aug 14, 2011 12:13 PM

Nice Tab mate :) best one I've seen posted around!

0 reply
Emo Fag Kid 71 Aug 15, 2011 05:39 PM

thanks man :)

0 reply
danyydezeyte 24 Oct 01, 2011 07:21 AM

can you please help me with the chorus harmony thing? The part's not clear and I can't get it right. Thanks. Awesome tab btw:)

guest
You may want to rate the tab now too:
select rating
Wanna post a correction for this tab? Suggest correction