Oops, an error
Loading. Please wait.

Fear Final Transmission Tab

version 1
version 1

Whole song

Interactive

359 views 6 this week
no commentswrite comment
1 2 3 4 5
accurate
x 4
add to favorites
launch autoscroll
font size
0
reset
how to read this tab
guitar tuner
Tab Pro tools
  • play this tab
  • loop segment
  • change instrument
  • show fretboard
  • metronome
Autoscroll
slow
fast
+/-
esc
set tempo
stop
Contributor
-------------------------------------------------------------------------------
                         F.E.A.R Final Transmission
-------------------------------------------------------------------------------

Tuning: Drop C#


                 ****************************************
                           PIANO 1 / (GUITAR)
                 ****************************************

D#|-------14-16-17----------------14-16-17----------------14-16-17-----|
A#|----14----------------------14----------------------14--------------|
F#|----------------------13-14-------------------13-14-----------------|
C#|-------------------16----------------------16-----------------------|
G#|----------------16----------------------16--------------------------|
C#|--------------------------------------------------------------------|

                                                                  *1(Piano 2)
                                                                   |
D#|----------------------16-17-16-14-17-16-14-13-14-17-16--------------|
A#|-------------------19----------------------------------15-14--------|
F#|----------------18--------------------------------------------------|
C#|-------------16-----------------------------------------------------|
G#|-------17-19--------------------------------------------------------|
C#|----19--------------------------------------------------------------|


D#|--------------------------------------------------------------------|
A#|----------9-10------------------9-10------------------9-10----------|
F#|-------11--------------------11--------------------11---------------|
C#|----11--------------------11--------------------11------------------|
G#|------------------9-11-12---------------9-11-12---------------------|
C#|---------------11--------------------11-----------------------------|
                           |
                          *2


                                     *3               *4      *5
                                      |                |       |
D#|----------------4-5-4-2-5-4-2-1-4-------2-4-5-----4-5-----5-8--8---8---8---|
A#|--------------7-----------------------2---------7-------7---10-------------|
F#|------------6---------------------------------6-------6-----9--------8-----|
C#|----------4------------------------------------------------------9---------|
G#|------5-7------------------------------------------------------------------|
C#|----7----------------------------------------------------------------------|


                 ****************************************
                            PIANO 2 / (GUITAR)
                 ****************************************

D#|---------------------------------------------------------------|
A#|---------------------------------------------------------------|
F#|----4----------2-----------4-----------------------------------|
C#|--------------------------------------5----------2-------------|
G#|----2----------0-----------2-----------------------------------|
C#|--------------------------------------3----------0-------------|
       |          |           |          |          |
      *1         *2          *3         *4         *5       


                 ****************************************
                              CELLO / (BASS)
                 ****************************************

      W     W     W     H   H   H   W      W      W     H   W
      |     |     |     |   |   |   |      |      |     |   |
F#|-------------------------------------------------------------------|
C#|---4-----2-----0-----------------4------2------0-------------------|
G#|---------------------2---4---------------------------2---4---------|
C#|-------------------------------------------------------------------|

      H   H   H   W
      |   |   |   |
F#|-------------------|
C#|-------2---0-------|
G#|---4-----------2---|
C#|-------------------|


******************************************************************************


W - Whole Note
H - Half Note
*1 - *4 - The point when to play Piano 2
comments
print report bad tab
I want to post or [tab]
guest
You may want to rate the tab now too:
select rating
Please do not post tabs as comments. Select "correction" instead!