Oops, an error
Loading. Please wait.

Fear Transmission 2 Trust Tab

version 1
version 1

Whole song

Interactive

266 views 1 this week
no commentswrite comment
1 2 3 4 5
x 5
add to favorites
launch autoscroll
font size
0
reset
how to read this tab
guitar tuner
Autoscroll
slow
fast
+/-
esc
set tempo
stop
Help us to improve Ultimate-Guitar.com Take our survey!
×
-------------------------------------------------------------------------------
                        F.E.A.R Transmission 2: Trust
-------------------------------------------------------------------------------

Tuning: Drop C#


                 ****************************************
                           VIOLIN 1 / (GUITAR)
                 ****************************************

D#|---5--------5-7-8--------5-7-4--------4-5-7--------4-7-5-------|
A#|----------5------------5------------5------------5-------------|
F#|---------------------------------------------------------------|
C#|---------------------------------------------------------------|
G#|---------------------------------------------------------------|
C#|---------------------------------------------------------------|

D#|-----5-7-8--------5-7-4--------4-5-7--------4-7-5--------------|
A#|---5------------5------------5------------5--------------------|
F#|---------------------------------------------------------------|
C#|---------------------------------------------------------------|
G#|---------------------------------------------------------------|
C#|---------------------------------------------------------------|



                 ****************************************
                           VIOLIN 2 / (GUITAR)
                 ****************************************

D#|--------------------------------------------------------------------|
A#|--------------------------------------------------------------------|
F#|--------------------------------------------------------------------|
C#|---7---9-10-9-10-9-7---9-10-9-10-9-6---7-9-7-9-7-6---7-9-7-9-10-7---|
G#|--------------------------------------------------------------------|
C#|--------------------------------------------------------------------|

D#|--------------------------------------------------------------------|
A#|--------------------------------------------------------------------|
F#|--------------------------------------------------------------------|
C#|---9-10-9-10-9-7---9-10-9-10-9-6---7-9-7-9-7-6---7-9-7-9-10-7-------|
G#|--------------------------------------------------------------------|
C#|--------------------------------------------------------------------|



                 ****************************************
                              CELLO / (BASS)
                 ****************************************

F#|----------------------------------------------------------------------|
C#|---7---7---7---7---7---7---7---7---6---6---6---6---2---2---2---2------|
G#|----------------------------------------------------------------------|
C#|---7---7---7---7---7---7---7---7---6---6---6---6---2---2---2---2------|

F#|-------------------------------------------------------------------2--|
C#|---7---7---7---7---7---7---7---7---6---6---6---6---2---2---2---2------|
G#|-------------------------------------------------------------------0--|
C#|---7---7---7---7---7---7---7---7---6---6---6---6---2---2---2---2------|



                 ****************************************
                          HARMONY VIOLIN / (GUITAR)
                 ****************************************

   Starts at 00:08

D#|---8--------8-10-12-------8-10-7------7-8-10-----7-10-8--------|
A#|---------10------------10-----------9----------9---------------|
F#|---------------------------------------------------------------|
C#|---------------------------------------------------------------|
G#|---------------------------------------------------------------|
C#|---------------------------------------------------------------|


****************************************************************************
Suggest correction
comments
print report bad tab
guest
You may want to rate the tab now too:
select rating
Wanna post a correction for this tab? Suggest correction