Oops, an error
Loading. Please wait.

Goodbye Agony tab

version 2
version 2

Whole song

  • This is the complete tab to Black Veil Brides' "Go... Show more

Interactive

136 views 1 this week
no commentswrite comment
1 2 3 4 5
3 more votes to show rating
add to favorites
×
Save as Personal and add changes to this tab that will be seen only by you. Learn more ›
×
You can save this tab as Personal to edit and correct it or add notes. All changes will be seen only by you. Learn more »
launch autoscroll
font size
0
reset
how to read this tab
guitar tuner
edit
Autoscroll
slow
fast
+/-
esc
set tempo
stop
About this tab version
This is the complete tab to Black Veil Brides' "Goodbye Agony," which I was able to put together from Jake Pitts' YouTube tutorial. A couple of the parts may be incorrect, and if they are, please let me know and I will correct them as soon as I can. The song is in Drop C, with no capo. Was this info helpful? Yes No
Intro (Clean)
D|-------------------------------------------------|
A|------0--1--------0-------------0--1-------------|
F|---2-----------2-----2-------------------1--2-4--|
C|-----------------------------2-------------------|
G|-0-----------------------------------------------|
C|-------------3-------------0-----------0---------|

 Lead Intro 1
D|----------------------------------------12/15-13~~~-----------------------|
A|-----------------------------12---/15-------------------------------------|
F|-12---11---/12-11-------12------------------------------------------------|
C|-------------------12-----------------------------------------------------|
G|--------------------------------------------------------------------------|
C|--------------------------------------------------------------------------| 

 Rhythm Intro (2x)
D|---------------------------------------------------------------------------|
A|---------------------------------------------------------------------------|
F|---------------------------------------------------------------------------|
C|---------3-3-3-3-3-------------------------------------3-----3-------------|
G|--00-0---1-1-1-1-1--0-0-0-0-0---5-5-5-5-5--3-3-3-3--0--1--0--1-------------|
C|--00-0--------------0-0-0-0-0---5-5-5-5-5--3-3-3-3--0-----0----------------|
 Pm .. .                                              .     .

 Lead Intro 2 (2x)
D|--------------------------------------------15-----------------------------|
A|----12-11-14-15v------12-11-12-15b-15b-15v------14v-12-11-14-12v-----------|
F|-11---------------11-------------------------------------------------------|
C|---------------------------------------------------------------------------|
G|---------------------------------------------------------------------------|
C|---------------------------------------------------------------------------|

  Verse (6x)
D|-------------------------------------------------|
A|------0--1--------0-------------0--1-------------|
F|---2-----------2-----2-------------------1--2/4--|
C|-----------------------------2-------------------|
G|-0-----------------------------------------------|
C|-------------3-------------6-----------6---------|

 Rhythm Pre Chorus
D|-----------------------------------|
A|-----------------------------------|
F|-----------------------------------|
C|-----------------------------------|
G|--2-2-2-2-2-2--3-3-3-3-3-3-3-------|
C|--2-2-2-2-2-2--3-3-3-3-3-3-3-------|
Pm  . . . . . .  . . . . . .

 Rhythm Chorus
D|----------------------------------------------------------------------------|
A|----------------------------------------------------------------------------|
F|----------------------------------------------------------------------------|
C|---------3-3-3-3-3--------------------------------------3-----3-------------|
G|--00-0---1-1-1-1-1--0-0-0-0-0---5-5-5-5-5--3-3-3-3--00--1--0--1-------------|
C|--00-0--------------0-0-0-0-0---5-5-5-5-5--3-3-3-3--00-----0----------------|
 Pm .. .                                              ..     .
  
 Post Chorus
D|----------------------------------------12/15-13~~~-----------------------|
A|-----------------------------12---/15-------------------------------------|
F|-12---11---/12-11-------12------------------------------------------------|
C|-------------------12-----------------------------------------------------|
G|--------------------------------------------------------------------------|
C|--------------------------------------------------------------------------|

  Verse (Clean)
D|-------------------------------------------------|
A|------0--1--------0-------------0--1-------------|
F|---2-----------2-----2-------------------1--2-4--|
C|-----------------------------2-------------------|
G|-0-----------------------------------------------|
C|-------------3-------------6-----------6---------|

 Rhythm Pre Chorus 2 
D|------------------------------------------------------|
A|------------------------------------------------------|
F|------------------------------------------------------|
C|------------------------------------------------------|
G|-2222222222--3*--3*--2-22-2-22-2-2-2-22-2-22-2-2-2----|
C|-2222222222----------2-22-2-22-2-2-2-22-2-22-2-2-2----|
Pm ..........            ..   ..   .   ..   ..   .

 Lead Pre Chorus 2
D|-------------------------12-14-15-14-12--------------------------------|
A|----------------12-14-15----------------12-14-15-14-12-----------------|
F|----------10-11-----------------------------------------12-14-15-14-12-|
C|--9-11-12--------------------------------------------------------------|
G|-----------------------------------------------------------------------|
C|-----------------------------------------------------------------------|

D|-----------------------------------------------12-14-15-14-12-14-15b~~-|
A|-12-14-15-14-12-----------------12-14-15-14-12-------------------------|
F|-----------------12-14-15-14-12----------------------------------------|
C|-----------------------------------------------------------------------|
G|-----------------------------------------------------------------------|
C|-----------------------------------------------------------------------|

Rhythm Chorus
D|----------------------------------------------------------------------------|
A|----------------------------------------------------------------------------|
F|----------------------------------------------------------------------------|
C|---------3-3-3-3-3--------------------------------------3-----3-------------|
G|--00-0---1-1-1-1-1--0-0-0-0-0---5-5-5-5-5--3-3-3-3--00--1--0--1-------------|
C|--00-0--------------0-0-0-0-0---5-5-5-5-5--3-3-3-3--00-----0----------------|
 Pm .. .                                              ..     .
 
 Pre Solo
D|-----------------------------------------------------------------------|
A|-----------------------------------------------------------------------|
F|-----------------------------------------------------------------------|
C|--3333333--5555555--777777-777--555555--3333333--5555555--7777777-777--|
G|--1111111--3333333--555555-555--333333--1111111--5555555--5555555-555--|
C|-----------------------------------------------------------------------|

D|-----------------------------------------------|
A|-----------------------------------------------|
F|-----------------------------------------------|
C|--9999999-10-10-10-10-10-10-10---9999999999999-|
G|--7777777--9--9--9--9--9--9--9---7777777777777-|
C|-----------------------------------------------|

 Solo
D|-14b----14bv-12-10--14p10-----------10----------10-----------------------------|
A|--------------------------12-10-12v----14-12-14----12-------------\10-8-7-7p5--|
F|-------------------------------------------------------------------------------|
C|--------------------------------------------------------11-12bv----------------|
G|-------------------------------------------------------------------------------|
C|-------------------------------------------------------------------------------|

D|---------------------------------------------------12-15-12-14-12-15-14--------|
A|-----------------------------------------12-14-15------------------------------|
F|---7--6v--------------------------10-11----------------------------------------|
C|-7---------------3----5---9-11-12----------------------------------------------|
G|-----------3-7-----7-----------------------------------------------------------|
C|-------------------------------------------------------------------------------|
Pm           . .   .    .

D|-------------17b----17b------17------------------------------------------------|
A|--14-15-12---------------17------17br-17b--------------------------------------|
F|------------------------------------------17bv---\11-13------------------------|
C|--------------------------------------------------------12-14-15-14-12---------|
G|-------------------------------------------------------------------------------|
C|-------------------------------------------------------------------------------|

D|-----------------12-14-15-14-12------------------12-14-15-14-12----------------|
A|-12-14-15-14-15------------------12-14-15-14-12--------------------------------|
F|-------------------------------------------------------------------------------|
C|-------------------------------------------------------------------------------|
G|-------------------------------------------------------------------------------|
C|-------------------------------------------------------------------------------|

D|--14-16-17-15---------------14-16-17-15-18brbv~~~~-----------------------------|
A|---------------14-16-17-15-----------------------------------------------------|
F|-------------------------------------------------------------------------------|
C|-------------------------------------------------------------------------------|
G|-------------------------------------------------------------------------------|
C|-------------------------------------------------------------------------------|

Final Chorus
D|------------------------------------------------------------------------------------------|
A|------------------------------------------------------------------------------------------|
F|------------------------------------------------------------------------------------------|
C|-3-3-3-3-3---------------------------------------3-3-3-3-3--------------------------------|
G|-1-1-1-1-1--0-0-0-0-0--5-5-5-5-5--3-3-3-3--00-0--1-1-1-1-1--0-0-0-0-0--5-5-5-5-5--3-3-3-3-|
C|------------0-0-0-0-0--5-5-5-5-5--3-3-3-3--00-0-------------0-0-0-0-0--5-5-5-5-5--3-3-3-3-|
 Pm                                          .. .

D|------------------------------------------------------------------------------------------|
A|------------------------------------------------------------------------------------------|
F|------------------------------------------------------------------------------------------|
C|-3-3-3-3-3-----------------------------------3-3-3-3-3------------------------------------|
G|-1-1-1-1-1--0-0-0-0-0--5-5-5-5-5--3-3-3-3----1-1-1-1-1--0-0-0-0-0--5-5-5-5-5--3-3-3-3-----|
C|------------0-0-0-0-0--5-5-5-5-5--3-3-3-3---------------0-0-0-0-0--5-5-5-5-5--3-3-3-3-----|
 Pm                                         





D|--------------------------------------------------------------------------------------|
A|--------------------------------------------------------------------------------------|
F|--------------------------------------------------------------------------------------|
C|-3-3-3-3-3-----------------------------------3-3-3-3-3--------------------------------|
G|-1-1-1-1-1--0-0-0-0-0--5-5-5-5-5--3-3-3-3----1-1-1-1-1--0-0-0-0-0--5-5-5-5-5--3-3-3-3-|
C|------------0-0-0-0-0--5-5-5-5-5--3-3-3-3---------------0-0-0-0-0--5-5-5-5-5--3-3-3-3-|
 Pm

D|--------------------------------------------------------------------------------------|
A|--------------------------------------------------------------------------------------|
F|--------------------------------------------------------------------------------------|
C|-3-3-3-3-3-----------------------------------3-3-3-3-3--------------------------------|
G|-1-1-1-1-1--0-0-0-0-0--5-5-5-5-5--3-3-3-3----1-1-1-1-1--0-0-0-0-0--5-5-5-5-5--3-3-3-3-|
C|------------0-0-0-0-0--5-5-5-5-5--3-3-3-3---------------0-0-0-0-0--5-5-5-5-5--3-3-3-3-|
 Pm

************************************

| /   Slide up
| ~   Vibrato
| .   Staccato
| b   Bend
| *   Natural harmonic
| p   Pull-off
| \   Slide down
| br  Bend release


************************************
Suggest correction
Creating personal tab
Creating personal tab
You can edit any tab online and save it as your Personal.

You can edit, replace or remove any tab part or add personal notes – all changes will be seen only by you.

Personal tabs can be accessed anytime from any device, even offline.
Learn more »
Give kudos to tab author, rate the tab!
1 2 3 4 5
comments
print report bad tab
guest
You may want to rate the tab now too:
select rating
Wanna post a correction for this tab? Suggest correction