Oops, an error
Loading. Please wait.

Heart Of Fire Tab

version 2
version 2

Whole song

  • This is the full song from Black Veil Bride's Hear... Show more

Interactive

64 views 1 this week
no commentswrite comment
1 2 3 4 5
3 more votes to show rating
add to favorites
launch autoscroll
font size
0
reset
how to read this tab
guitar tuner
Autoscroll
slow
fast
+/-
esc
set tempo
stop
Help us to improve Ultimate-Guitar.com Take our survey!
×
Author
Difficulty
Tuning
advanced
C G C F A D
About this tab version
This is the full song from Black Veil Bride's Heart Of Fire on their self titled 2014 album Black Veil Brides. This is the full song that was able to be written down by watching Jake Pitts' Youtube tutorial. It is in Drop C (low to high: C G C F A D) and a capo is not used. Was this info helpful? Yes No
[Intro]
D|----------------------------------------------------------------------|
A|----------------------------------------------------------------------|
F|----------------------------------------------------------------------|
C|----------------------------------------------------------------------|
G|----------------------------------------------------------------------|
C|--12\-0-2-2-5-2-0-4-5-0-7-0-5-0-4-5-0-2-2-2-5-2-2-0-4-5-0-7-0-5-0-4-5-|

D|-----------------------------------------------------------------|
A|-----------------------------------------------------------------|
F|-----------------------------------------------------------------|
C|-0-2-2-2-----0-4-5-0-7-0-5-0-4-5-0-2-2-2-----0-4-5-0-7-0-5-0-4-5-|
G|-0-2-2-2-----0-4-5-0-7-0-5-0-4-5-0-2-2-2-----0-4-5-0-7-0-5-0-4-5-|
C|-0-2-2-2-5-2-0-4-5-0-7-0-5-0-4-5-0-2-2-2-5-2-0-4-5-0-7-0-5-0-4-5-|
Pm    . .     .     .   .   .         . .     .     .   .   .

D|-----------------------------------------------------------------|
A|-----------------------------------------------------------------|
F|-----------------------------------------------------------------|
C|-0-2-2-2-----0-4-5-0-7-0-5-0-4-5-0-2-2-2-----0-4-5-0-7-0-5-0-4-5-|
G|-0-2-2-2-----0-4-5-0-7-0-5-0-4-5-0-2-2-2-----0-4-5-0-7-0-5-0-4-5-|
C|-0-2-2-2-5-2-0-4-5-0-7-0-5-0-4-5-0-2-2-2-5-2-0-4-5-0-7-0-5-0-4-5-|
Pm    . .     .     .   .   .         . .     .     .   .   .


 [Verse]
D|---------------------------------------------|
A|---------------------------------------------|
F|-----------4---2---5---4------2--4--2--0-----|
C|--2--2-2-2---2---2---2---2--2----------------|
G|-------------------------------------------/-|
C|---------------------------------------------|
Pm .  . . .   .   .   .   .  .

D|-----------------------------------------------------------------|
A|-----------------------------------------------------------------|
F|-----------------------------------------------------------------|
C|-0-2-2-2-----0-4-5-0-7-0-5-0-4-5-0-2-2-2-----0-4-5-0-7-0-5-0-4-5-|
G|-0-2-2-2-----0-4-5-0-7-0-5-0-4-5-0-2-2-2-----0-4-5-0-7-0-5-0-4-5-|
C|-0-2-2-2-5-2-0-4-5-0-7-0-5-0-4-5-0-2-2-2-5-2-0-4-5-0-7-0-5-0-4-5-|
Pm    . .     .     .   .   .         . .     .     .   .   .

D|--------------------------------------------|
A|--------------------------------------------|
F|-----------4---2---5---4------2--4--2--0----|
C|--2--2-2-2---2---2---2---2--2---------------|
G|--------------------------------------------|
C|--------------------------------------------|
Pm .  . . .   .   .   .   .  .

D|-----------------------------------------------------------------|
A|-----------------------------------------------------------------|
F|-----------------------------------------------------------------|
C|-0-2-2-2-----0-4-5-0-7-0-5-0-4-5-0-2-2-2-----0-4-5-0-7-0-5-0-4-5-|
G|-0-2-2-2-----0-4-5-0-7-0-5-0-4-5-0-2-2-2-----0-4-5-0-7-0-5-0-4-5-|
C|-0-2-2-2-5-2-0-4-5-0-7-0-5-0-4-5-0-2-2-2-5-2-0-4-5-0-7-0-5-0-4-5-|
Pm    . .     .     .   .   .         . .     .     .   .   .


 Pre Chorus
D|----------------------------------------------------------------------------|
A|--------------------------------------------------10-10-10--10-10-10-10-10--|
F|-12-12-12-12-12-12-12-12--11-11-11-11-11-11-11-11--x--x--x--x--x--x--x--x---|
C|--x--x--x--x--x--x--x--x--x--x--x--x--x--x--x--x---7--7--7--7--7--7--7--7---|
G|-10-10-10-10-10-10-10-10--9--9--9--9--9--9--9--9----------------------------|
C|----------------------------------------------------------------------------|

D|------------------------------------|
A|-8-8-8-8-8-8-8-8-7-7-7-7-7-7-7-7----|
F|-x-x-x-x-x-x-x-x-x-x-x-x-x-x-x-x----|
C|-5-5-5-5-5-5-5-5-4-4-4-4-4-4-4-4----|
G|------------------------------------|
C|------------------------------------|


 [Chorus]
D|-------------------------------------------------------------------------------|
A|------12-----12---------10-------10-------8-----8-----8---8-----8---8-10-8-----|
F|--9-9----9-9----9-7---7----7-7-7----7-5-5---5-5---5-5---5---5-5---5---------11-|
C|-------------------------------------------------------------------------------|
G|-------------------------------------------------------------------------------|
C|-------------------------------------------------------------------------------|
Pm . .    . .    . .   .    . . .    . . .   . .   . .   .   . .   .          .

D|---------------------------------------------------------------------------------------|
A|------12-----12---------10-------10-------8-----8-----8---8-----8---8-10-8-------------|
F|--9-9----9-9----9-7---7----7-7-7----7-5-5---5-5---5-5---5---5-5---5---------5-5-7-0-11-|
C|---------------------------------------------------------------------------------------|
G|---------------------------------------------------------------------------------------|
C|---------------------------------------------------------------------------------------|
Pm . .    . .    . .   .    . . .    . . .   . .   . .   .   . .   .         .

D|-------------------------------------------------------------------------------|
A|------12-----12---------10-------10-------8-----8-----8---8-----8---8-10-8-----|
F|--9-9----9-9----9-7---7----7-7-7----7-5-5---5-5---5-5---5---5-5---5---------11-|
C|-------------------------------------------------------------------------------|
G|-------------------------------------------------------------------------------|
C|-------------------------------------------------------------------------------|
Pm . .    . .    . .   .    . . .    . . .   . .   . .   .    . .  .          .

D|-------------------------------------------|
A|-------------------------------------------|
F|-9-----------7-9-11-----------9-11-12------|
C|-------------------------------------------|
G|-------------------------------------------|
C|-------------------------------------------|


 [Bridge]
D|----------------------------------------------------------------------------|
A|----------12-13-15-13-12----------------12-13-15-15b~~~brb-15b~~~~r-15br~v--|
F|-11-12-14----------------14-12-11-12-14-------------------------------------|
C|----------------------------------------------------------------------------|
G|----------------------------------------------------------------------------|
C|----------------------------------------------------------------------------|


 [Verse]
D|--------------------------------------------12-----------12-10--------|
A|--------------------------------------------15b----------------12-11--|
F|-----------4---2---5---4------2--4--2--0------------------------------|
C|--2--2-2-2---2---2---2---2--2-----------------------------------------|
G|----------------------------------------------------------------------|
C|----------------------------------------------------------------------|
Pm .  . . .   .   .   .   .  .                                        

D|--------------------------------------------|
A|----------------------12------12----12--\---|
F|-12-14-15----12-------12------12----12--\---|
C|----------14----14-12------14----14-14--\---|
G|--------------------------------------------|
C|--------------------------------------------|
Pm                .  .       .     .

D|----------------------------------------------------------------|
A|----------------------------------------------------------------|
F|----------------------------------------------------------------|
C|--2-2-2-2-2-2-2-2-2-2-2-2-2-2-0-2-2-5-0-4-0-7-0-5-0-0-----------|
G|--2-2-2-2-2-2-2-2-2-2-2-2-2-2-0-2-2-5-0-4-0-7-0-5-0-0-----------|
C|--2-2-2-2-2-2-2-2-2-2-2-2-2-2-0-2-2-5-0-4-0-7-0-5-0-0-4-5-4-0---|
Pm . . . . . . . . . . . . . .     .   .   .   .   . .

D|-7-----------------10---------------------15-13-12-13-15-----|
A|-8-----10-8--------11----11-11----12-11-9--------------------|
F|------------9-9----------------------------------------------|
C|-------------------------------------------------------------|
G|-------------------------------------------------------------|
C|-------------------------------------------------------------|


  Pre Chorus
D|------------------------------------------------------------------------------------|
A|---------------------------------------------------------10-10-10-10-10-10-10-10----|
F|-11-11-11-11-11-11-11-11-9-9-9-9-9-9-9-9-7-7-7-7-7-7-7-7--x--x--x--x--x--x--x--x----|
C|-x--x--x--x--x--x--x--x--x-x-x-x-x-x-x-x-x-x-x-x-x-x-x-x--7--7--7--7--7--7--7--7----|
G|-9--9--9--9--9--9--9--9--7-7-7-7-7-7-7-7-5-5-5-5-5-5-5-5----------------------------|
C|------------------------------------------------------------------------------------|

D|---------------------------------7-7-7-7-7-7-7---|
A|-8-8-8-8-8-8-8-8-7-7-7-7-7-7-7-7-8-8-8-8-8-8-8---|
F|-x-x-x-x-x-x-x-x-x-x-x-x-x-x-x-x-9-9-9-9-9-9-9---|
C|-5-5-5-5-5-5-5-5-4-4-4-4-4-4-4-4-----------------|
G|-------------------------------------------------|
C|-------------------------------------------------|


 [Chorus]
D|-------------------------------------------------------------------------------|
A|------12-----12---------10-------10-------8-----8-----8---8-----8---8-10-8-----|
F|--9-9----9-9----9-7---7----7-7-7----7-5-5---5-5---5-5---5---5-5---5---------11-|
C|-------------------------------------------------------------------------------|
G|-------------------------------------------------------------------------------|
C|-------------------------------------------------------------------------------|
Pm . .    . .    . .   .    . . .    . . .   . .   . .   .   . .   .          .

D|---------------------------------------------------------------------------------------|
A|------12-----12---------10-------10-------8-----8-----8---8-----8---8-10-8-------------|
F|--9-9----9-9----9-7---7----7-7-7----7-5-5---5-5---5-5---5---5-5---5---------5-5-7-0-11-|
C|---------------------------------------------------------------------------------------|
G|---------------------------------------------------------------------------------------|
C|---------------------------------------------------------------------------------------|
Pm . .    . .    . .   .    . . .    . . .   . .   . .   .   . .   .         .

D|-------------------------------------------------------------------------------|
A|------12-----12---------10-------10-------8-----8-----8---8-----8---8-10-8-----|
F|--9-9----9-9----9-7---7----7-7-7----7-5-5---5-5---5-5---5---5-5---5---------11-|
C|-------------------------------------------------------------------------------|
G|-------------------------------------------------------------------------------|
C|-------------------------------------------------------------------------------|
Pm . .    . .    . .   .    . . .    . . .   . .   . .   .   . .   .          .

D|-------------------------------------------|
A|-------------------------------------------|
F|-9-----------7-9-11-----------9-11-12------|
C|-------------------------------------------|
G|-------------------------------------------|
C|-------------------------------------------|


  Breakdown
D|-------------------------------------------------------------------|
A|-------------------------------------------------------------------|
F|-------------------------------------------------------------------|
C|-0-2-2-2-----0-0-----2-2-2-2-2-2-0-2-2-2-----0-0-----2-2-2-2-2-2---|
G|-0-2-2-2-----0-0-----2-2-2-2-2-2-0-2-2-2-----0-0-----2-2-2-2-2-2---|
C|-0-2-2-2-5-2-0-0-----2-2-2-2-2-2-0-2-2-2-5-2-0-0-----2-2-2-2-2-2---|
Pm    . .     .         . . . . .     . .     .         . .   . .

D|-------------------------------------------------------------------|
A|-------------------------------------------------------------------|
F|-------------------------------------------------------------------|
C|-0-2-2-2-----0-0-----2-2-2-2-2-2-0-2-2-2-----0-0-----2-2-2-2-2-2---|
G|-0-2-2-2-----0-0-----2-2-2-2-2-2-0-2-2-2-----0-0-----2-2-2-2-2-2---|
C|-0-2-2-2-5-2-0-0-----2-2-2-2-2-2-0-2-2-2-5-2-0-0-----2-2-2-2-2-2---|
Pm    . .     .         . . . . .     . .     .         . .   . .


 [Solo]
D|-/15----15--14--12--14-----------------------------------------------------------------|
A|---------------------------------13-15-17-15-13-15b~~~-15br~~13-12~~~------------------|
F|------------------------12-14-15-------------------------------------------------------|
C|---------------------------------------------------------------------------------------|
G|---------------------------------------------------------------------------------------|
C|---------------------------------------------------------------------------------------|

D|---------------------------------------------------------------------------------------|
A|--17-15-13-13-15-13-12-12-13-12-------15-12-------13-12-------15-12--------------------|
F|--------------------------------12-12-------12-12-------12-12-------12-12--------------|
C|---------------------------------------------------------------------------------------|
G|---------------------------------------------------------------------------------------|
C|---------------------------------------------------------------------------------------|

D|---------------------------------------------------------------------------------------|
A|--------------------------------------17-15----15--------------------------------------|
F|-12-11-9-----------------9-11-12-11-9-------16----16----16-----------------------------|
C|---------12-10-9-9-10-12-----------------------------17----17-14-17-14-----------------|
G|------------------------------------------------------------------------17-14-17-14----|
C|------------------------------------------------------------------------------------17-|

D|------------------------------------------12-15---15-14-15-17---15-17-15-14------------|
A|------12--12------------------------12-15----------------------------------------------|
F|--9*---------14-12------------12-14----------------------------------------------------|
C|-------------------14---12-14----------------------------------------------------------|
G|---------------------------------------------------------------------------------------|
C|---------------------------------------------------------------------------------------|

D|-------------17-------------------17-------------19-----------------------|
A|-20-17-19-20----20-17-19-20-17-19----20-17-19-20----20-7-19-20-19-17------|
F|--------------------------------------------------------------------------|
C|--------------------------------------------------------------------------|
G|--------------------------------------------------------------------------|
C|--------------------------------------------------------------------------|

D|-17-13-12-13-15-13-12-----------------------------------------------------|
A|----------------------17-15-13-15-17-15-13--------------------------------|
F|-------------------------------------------16-14-12-17^\------------------|
C|--------------------------------------------------------------------------|
G|--------------------------------------------------------------------------|
C|--------------------------------------------------------------------------|


 [Chorus]
D|-------------------------------------------------------------------------------|
A|------12-----12---------10-------10-------8-----8-----8---8-----8---8-10-8-----|
F|--9-9----9-9----9-7---7----7-7-7----7-5-5---5-5---5-5---5---5-5---5---------11-|
C|-------------------------------------------------------------------------------|
G|-------------------------------------------------------------------------------|
C|-------------------------------------------------------------------------------|
Pm . .    . .    . .   .    . . .    . . .   . .   . .   .   . .   .          .

D|---------------------------------------------------------------------------------------|
A|------12-----12---------10-------10-------8-----8-----8---8-----8---8-10-8-------------|
F|--9-9----9-9----9-7---7----7-7-7----7-5-5---5-5---5-5---5---5-5---5---------5-5-7-0-11-|
C|---------------------------------------------------------------------------------------|
G|---------------------------------------------------------------------------------------|
C|---------------------------------------------------------------------------------------|
Pm . .    . .    . .   .   . . .     . . .   . .   . .   .   . .   .         .

D|-------------------------------------------------------------------------------|
A|------12-----12---------10-------10-------8-----8-----8---8-----8---8-10-8-----|
F|--9-9----9-9----9-7---7----7-7-7----7-5-5---5-5---5-5---5---5-5---5---------11-|
C|-------------------------------------------------------------------------------|
G|-------------------------------------------------------------------------------|
C|-------------------------------------------------------------------------------|
Pm . .    . .    . .   .    . . .    . . .   . .   . .   .   . .   .          .

D|-------------------------------------------|
A|-------------------------------------------|
F|-9-----------7-9-11-----------9-11-12------|
C|-------------------------------------------|
G|-------------------------------------------|
C|-------------------------------------------|

D|-10---------------------------------------------------------------------|
A|-------8-------8---10-12-10-10-12-10\8---8-----8---8-----8---8---8------|
F|-----9---9-7-9---9---------------------9---9-9---9---9-9---9---9---9----|
C|------------------------------------------------------------------------|
G|------------------------------------------------------------------------|
C|------------------------------------------------------------------------|
Pm    .   . . .   .                         . .   .   . .   .   .   . 

D|-10----------------------------------------12----15----14----17---12-10-12---|
A|------8-------8---10-12-10-10-12-10\8---12-----------------------------------|
F|----9---9-7-9---9---------------------9--------------------------------------|
C|-----------------------------------------------------------------------------|
G|-----------------------------------------------------------------------------|
C|-----------------------------------------------------------------------------|
Pm    .  . . .   .


 [Outro]
D|-------------------------------------------------------------------|
A|-------------------------------------------------------------------|
F|-------------------------------------------------------------------|
C|-0-2-2-2-----0-0-----2-2-2-2-2-2-0-2-2-2-----0-0-----2-2-2-2-2-2---|
G|-0-2-2-2-----0-0-----2-2-2-2-2-2-0-2-2-2-----0-0-----2-2-2-2-2-2---|
C|-0-2-2-2-5-2-0-0-----2-2-2-2-2-2-0-2-2-2-5-2-0-0-----2-2-2-2-2-2---|
Pm    . .     .         . . . . .     . .     .         . .   . .

D|----------------------------|
A|----------------------------|
F|----------------------------|
C|--0-2-2-2-----0-0----2------|
G|--0-2-2-2-----0-0----2------|
C|--0-2-2-2-5-2-0-0----2------|
Pm     . .     .


***************************************

Key:
b - bend
Pm ... - palm mute
\ - slide up (higher note fret)
/ - slide down (lower note fret)
^ - Tremolo bar pull up 
~ - hold note
v - vibrado
x - dead note

***************************************
Suggest correction
Give kudos to tab author, rate the tab!
1 2 3 4 5
comments
print report bad tab
guest
You may want to rate the tab now too:
select rating
Wanna post a correction for this tab? Suggest correction