Oops, an error
Loading. Please wait.

I Am Bulletproof Bass Tab

version 1
version 1

Whole song

Interactive

4,978 views 12 this week
no commentswrite comment
1 2 3 4 5
please rate
add to favorites
launch autoscroll
font size
0
reset
guitar tuner
Tab Pro tools
  • play this tab
  • loop segment
  • change instrument
  • show fretboard
  • metronome
×
Best way to learn
"I Am Bulletproof"
Autoscroll
slow
fast
+/-
esc
set tempo
stop
Contributor
Tuning
C# G# C# F# A# D#
0:07
F#|-----------------------------------------------------------------|
C#|-----------------------------------------------------1-------1---|
G#|-3---3-3---3-3---3-3-3---3-3-3-----------------------------------|
C#|---------------------------------1---1-1---1-1---1-1-----1-1-----|

F#|-----------------------------------------------------------------|
C#|-----------------------------------------------------------------|
G#|-1---1-1---1-1---1-1-1---1-1-1-----------------------------------|
C#|---------------------------------6-6-6-6-6-6-6-6-8-8-8-8-8-6-5-3-|

F#|-----------------------------------------------------------------|
C#|-----------------------------------------------------5-9-8-5-----|
G#|-3---3-3---3-3---3-3-3---3-3-3---6---6-6---6-6---6-8---------8-6-|
C#|-----------------------------------------------------------------|

F#|-----------------------------------------------------------------|
C#|-----------------------------------------------------------------|
G#|-1---1-1---1-1---1-1-1---1-1-1-------------------1-1-1-1-1-1-1-1-|
C#|---------------------------------6-6-6-6-6-6-6-6-----------------|

0:23
F#|------------------------------------------------------------------|
C#|o-----------------------------------------------------------------|
G#|o-3-3-3-3-6-3-3-3-6-3-3-3-6-3-3-3-1-3-3-3-6-3-3-3-6-3-3-3-6---1---|
C#|------------------------------------------------------------------|

F#|------------------------------------------------------------------|
C#|-----------------------------------------------------------------o|
G#|-3-3-3-3-6-3-3-3-6-3-3-3-6-3-3-3---------------------------------o|
C#|---------------------------------3-3-3-3-3-3-3-3-5-5-5-5-5-5-5-5--|

0:39
F#|-----------------------------------------------------------------|
C#|-----------------------------------------------------------------|
G#|-3-----3-r---3-------r---3-r-----5-----5-r---5-------r---5-r-----|
C#|-----------------------------------------------------------------|

F#|-----------------------------------------------------------------|
C#|-----------------------------------------------------------------|
G#|-6-----6-r---6-------r---6-r-------------------------------------|
C#|---------------------------------6---6-6-6-6-3---3-----/-15-r----|

0:47
F#|-------------------------------------------------------------------|
C#|o-----------------------------------------------------------------o|
G#|o-3-3-3-3-3-3-3-3-----------------1-1-1-1-1-1-1-1-----------------o|
C#|------------------1-1-1-1-1-1-1-1-----------------6-6-6-6-6-6-6-6--|

1:03
F#|------------------------------------------------------------------|
C#|------------------------------------------------------------------|
G#|-3333333-333-333-3333333-333-3333333-333-333-333-3-/-/-/-18-\-\-\-|
C#|------------------------------------------------------------------|

1:11
F#|------------------------------------------------------------------|
C#|o-----------------------------------------------------------------|
G#|o-3-3-3-3-6-3-3-3-6-3-3-3-6-3-3-3-1-3-3-3-6-3-3-3-6-3-3-3-6---1---|
C#|------------------------------------------------------------------|

F#|------------------------------------------------------------------|
C#|-----------------------------------------------------------------o|
G#|-3-3-3-3-6-3-3-3-6-3-3-3-6-3-3-3---------------------------------o|
C#|---------------------------------3-3-3-3-3-3-3-3-5-5-5-5-5-5-5-5--|

1:27
F#|-----------------------------------------------------------------|
C#|-----------------------------------------------------------------|
G#|-3-----3-r---3-------r---3-r-----5-----5-r---5-------r---5-r-----|
C#|-----------------------------------------------------------------|

F#|-----------------------------------------------------------------|
C#|-----------------------------------------------------------------|
G#|-6-----6-r---6-------r---6-r-------------------------------------|
C#|---------------------------------6---6-6-6-6-3---3-----/-15-\----|

1:35
F#|-------------------------------------------------------------------|
C#|o-----------------------------------------------------------------o|
G#|o-3-3-3-3-3-3-3-3-----------------1-1-1-1-1-1-1-1-----------------o| x4
C#|------------------1-1-1-1-1-1-1-1-----------------6-6-6-6-6-6-6-6--|

2:07
F#|-----------------------------------------------------------------|
C#|-----------------------------------------------------------------|
G#|-----------------3-1-3-4-3-1-------------------------------------|
C#|-10-\------------------------6-------------------5-\---/-8---5---|

F#|-----------------------------------------------------------------|
C#|-----------------------------------------------------------------|
G#|-3-3-3-3-3-3-3-3-3-1-3-4-3-1-------------------------------------|
C#|-----------------------------6-5-6-6-6-6-6-6-6-6-5-5-5-5-8---5---|

F#|-----------------------------------------------------------------|
C#|-----------------------------------------------------------------|
G#|-3-3-3-3-3-3-3-3-----------------4-4-4-4-4-4-4-4-1-1-4-4-1-1-4-4-|
C#|-----------------3-5-6-5-3-5-6-5---------------------------------|

2:19
F#|-----------------------------------------------------------------|
C#|-----------------------------------------------------------------|
G#|-3-------3-1-3-4-3-1---------------------------------------------|
C#|---------------------6-----------5-------8---5-------------------|

F#|---------------------------------------------------------|
C#|---------------------------------------------------------|
G#|-3-----------------------4-------4-------1-1-1-1-4---4---|
C#|---------3-5-6-5-3-5-6-5---------------------------------|

2:27
F#|------------------------------------------------------------------|
C#|o-----------------------------------------------------------------|
G#|o-3---3-3-3-3-3---3-3-3---3-3-3-3---------------------------------|
C#|----------------------------------6---6-6-6-6-6---6-6-6---6-6-6-6-|

F#|------------------------------------------------------------------|
C#|-----------------------------------------------------------------o|
G#|-----------------------------------------------------------------o|
C#|-1---1-1-1-1-1---1-1-1---1-1-1-1-5-5-5-5-5-5-5-5-5-5-5-5-5-5-5-5--|

Rest

F#|-------------------------------------------------------------------|
C#|o-----------------------------------------------------------------o|
G#|o-3-3-3-3-3-3-3-3-----------------1-1-1-1-1-1-1-1-----------------o| x4
C#|------------------1-1-1-1-1-1-1-1-----------------6-6-6-6-6-6-6-6--|

3:17
F#|-----------------------------------------------------------------------|
C#|-----------------------------------------------------------------------|
G#|-3333333-333-333-3333333-333-3333333-333-333-333-----------------------|
C#|-------------------------------------------------3333333366665555-10-\-|
Tabbed by Dave Vucko
comments
We did not receive enough feedback on this tab! Please rate:
print report bad tab
1 2 3 4 5
I want to post or [tab]
guest
You may want to rate the tab now too:
select rating
Please do not post tabs as comments. Select "correction" instead!