Oops, an error
Loading. Please wait.

In The End Bass Tab

version 1
version 1

Whole song

32,128 views 72 this week
2 commentsread comments
1 2 3 4 5
excellent!
x 16
add to favorites
launch autoscroll
font size
0
reset
guitar tuner
Tab Pro tools
  • play this tab
  • loop segment
  • change instrument
  • show fretboard
  • metronome
×
Best way to learn
"In The End"
Autoscroll
slow
fast
+/-
esc
set tempo
stop
Contributor
Tuning
C# G# C# F# A# D#
0:06
F#|-----------------------------------------------------------------------|
C#|-----------------------------------------------------------------------|
G#|-----------------5-5-5-5-5-5-5-5-0-0-0-0-0-0-0-0-----------------------|
C#|-4-4-4-4-4-4-4-4---------------------------------2-2-2-2-2/12\2-2/12\2-|

0:13
F#|-----------------------------------------------------------|
C#|-----------------------------------------------------------|
G#|-----------------------------------------------5-----7-----|
C#|-4---4---2-4--------2-------4---4---2-4--------------------|

Rest

0:33 Verse
F#|--------------------------------------------------------------------------|
C#|--------------------------------------------------------------------------|
G#|--------------------------------------------------------------------------|
C#|-/12-12---4-4-4-4-4-4-4-4-7-7-7-7-7-7-7-7-6-6-6-6-6-6-6-6-5-5-5-5-5-5-5-5-|

F#|-----------------------------------------------------------------|
C#|-----------------------------------------------------------------|
G#|-----------------------------------------------------------------|
C#|-4-4-4-4-4-4-4-4-7-7-7-7-7-7-7-7-6-6-6-6-6-6-6-6-5-5-5-5-7---6---|

Rest

0:49 Chorus
F#|----------------------------------------------------------------------|
C#|----------------------------------------------------------------------|
G#|----------------------5-5-5-5-5-5-5-5-0-0-0-0-0-0-0-0-----------7-7---|
C#|-/12\-4-4-4-4-4-4-4-4---------------------------------6-6-6-6-6-----6-|

F#|-----------------------------------------------------------------|
C#|-----------------------------------------------------------------|
G#|-----------------5-5-5-5-5-5-5-5-0-0-0-0-0-0-0-0-----------------|
C#|-4-4-4-4-4-4-4-4---------------------------------2-2-2-2-2-2-2-2-|

1:02
F#|-----------------------------------------------------------------|
C#|-----------------------------------------------------------------|
G#|-4-4-4-4-4-4-4-4-5-5-5-5-5-5-5-5-0-0-0-0-0-0-0-0-----------------|
C#|-------------------------------------------------6-6-6-6---------|

F#|-----------------------------------------------------------------|
C#|-----------------------------------------------------------------|
G#|-----------------5-5-5-5-5-5-5-5-0-0-0-0-0-0-0-0-----------------|
C#|-4-4-4-4-4-4-4-4---------------------------------2-2-2-2-2-------|

1:16
F#|-----------------------------------------------------------|
C#|-----------------------------------------------------------|
G#|-----------------------------------------------5-----7-----|
C#|-4---4---2-4--------2-------4---4---2-4--------------------|

1:23 Verse
F#|-----------------------------------------------------------------|
C#|-----------------------------------------------------------------|
G#|-----------------------------------------------------------------|
C#|-4-4-4-4-4-4-4-4-7-7-7-7-7-7-7-7-6-6-6-6-6-6-6-6-5-5-5-5-5-5-5-5-|

F#|--------------------------------------------------------------------|
C#|--------------------------------------------------------------------|
G#|--------------------------------------------------------------------|
C#|-4-4-4-4-4-4-4-4-7-7-7-7-7-7-7-7-6-6-6-6-6-6-6-6-5-5-5-5-5-/12-12-5-|

1:37
F#|-----------------------------------------------------------------|
C#|-----------------------------------------------------------------|
G#|-----------------------------------------------------------------|
C#|-4-4-4-4-4-4-4-4-7-7-7-7-7-7-7-7-6-6-6-6-6-6-6-6-5-5-5-5-5-5-5-5-|

F#|-----------------------------------------------------------------|
C#|-----------------------------------------------------------------|
G#|-----------------------------------------------------------------|
C#|-4-4-4-4-4-4-4-4-7-7-7-7-7-7-7-7-6-6-6-6-6-6-6-6-5-5-5-5-7---7---|

1:50 Chorus
F#|-----------------------------------------------------------------|
C#|-----------------------------------------------------------------|
G#|-----------------5-5-5-5-5-5-5-5-0-0-0-0-0-0-0-0-----------------|
C#|-4-4-4-4-4-4-4-4---------------------------------6-6-6-6-6-6-6-6-|

F#|-----------------------------------------------------------------|
C#|-----------------------------------------------------------------|
G#|-----------------5-5-5-5-5-5-5-5-0-0-0-0-0-0-0-0-----------------|
C#|-4-4-4-4-4-4-4-4---------------------------------2-2-2-2-2-2-2-2-|

F#|-----------------------------------------------------------------|
C#|-----------------------------------------------------------------|
G#|-4-4-4-4-4-4-4-4-5-5-5-5-5-5-5-5-0-0-0-0-0-0-0-0-----------------|
C#|-------------------------------------------------6-6-6-6---------|

F#|-----------------------------------------------------------------|
C#|-----------------------------------------------------------------|
G#|-----------------5-5-5-5-5-5-5-5-0-0-0-0-0-0-0-0-----------------|
C#|-4-4-4-4-4-4-4-4---------------------------------2-2-2-2-2-2-2-2-|

2:18 Solo
F#|-----------------------------------------------------------------|
C#|-----------------------------------------------------------------|
G#|-----------------5-5-5-5-5-5-5-5-0-0-0-0-0-0-0-0-----------0-0---|
C#|-4-4-4-4-4-4-4-4---------------------------------2-2-2-2-2-----2-|

F#|-----------------------------------------------------------------|-----|
C#|-----------------------------------------------------------------|-----|
G#|-----------------5-5-5-5-5-5-5-5-0-0-0-0-0-0-0-0-----------------|-----|
C#|-4-4-4-4-4-4-4-4---------------------------------2-2-2-2-2-2-2-2-|-4---|

Rest

2:39 Chorus
F#|-----------------------------------------------------------------|
C#|-----------------------------------------------------------------|
G#|-----------------5-5-5-5-5-5-5-5-0-0-0-0-0-0-0-0-----------------|
C#|-4-4-4-4-4-4-4-4---------------------------------2-2-2-2-2-2-2-2-|

F#|-----------------------------------------------------------------|
C#|-----------------------------------------------------------------|
G#|-4-4-4-4-4-4-4-4-5-5-5-5-5-5-5-5-0-0-0-0-0-0-0-0-----------------|
C#|-------------------------------------------------6-6-6-6---------|

F#|-----------------------------------------------------------------|
C#|-----------------------------------------------------------------|
G#|-----------------5-5-5-5-5-5-5-5-0-0-0-0-0-0-0-0---5-7---5-7-5-7-|
C#|-4-4-4-4-4-4-4-4---------------------------------2-----2---------|

3:00 Solo
F#|-----------------------------------------------------------------|
C#|-----------------------------------------------------------------|
G#|-----------------5-5-5-5-5-5-5-5-0-0-0-0-0-0-0-0-----------0-0---|
C#|-4-4-4-4-4-4-4-4---------------------------------2-2-2-2-2-----2-|

F#|-----------------------------------------------------------------|
C#|-----------------------------------------------------------------|
G#|-----------------5-5-5-5-5-5-5-5-0-0-0-0-0-0-0-0-7-7-7-7-7-7-7-7-|
C#|-4-4-4-4-4-4-4-4-------------------------------------------------|

3:13 Chorus
F#|---------------------------------------------------------------------------------|
C#|-11-11-11-11-11-11-11-11-12-12-12-12-12-12-12-12---------------------------------|
G#|-------------------------------------------------0-0-0-0-0-0-0-0-----------------|
C#|-----------------------------------------------------------------6-6-6-6-2-2-2-2-|

F#|-----------------------------------------------------------------|
C#|-----------------------------------------------------------------|
G#|-----------------5-5-5-5-5-5-5-5-0-0-0-0-0-0-0-0-----------------|
C#|-4-4-4-4-4-4-4-4---------------------------------2-2-2-2-2-------|

3:27 Outro
F#|-----------------------------------------------------------|
C#|-----------------------------------------------------------|
G#|-----------------------------------------------5-----7-----|
C#|-4---4---2-4--------2-2-2-2-4---4---2-4--------------------|

F#|-------------------------------------------------------------------------------|
C#|-------------------------------------------------------------------------------|
G#|-----------------------------------------------5---0-5-7---7-------------------|
C#|-4---4---2-4--------222222224---4---2-4------------------------4---4---2-4-\---|
Tabbed by Dave Vucko
comments
print report bad tab
2 comments total.
-2 reply
CGConic wrote on April 24 2013, 05:20 pm

The only problem I see is the odd tuning. Usuallly its not a problem, but considering it is WAY easier to just use drop D and move down the tab by a b... meh

0 reply
DanteKral wrote on December 15 2014, 07:27 pm

Awesome tabbing mate, usually I'm not worried about the tuning but I'm sure you've got it spot on.

Keep it going mate

I want to post or [tab]
guest
You may want to rate the tab now too:
select rating
Please do not post tabs as comments. Select "correction" instead!