Oops, an error
Loading. Please wait.

Knives And Pens Acoustic intro tab

version 3
version 3

Intro

5,940 views 15 this week
1 commentread comment
1 2 3 4 5
x 5
add to favorites
×
Save as Personal and add changes to this tab that will be seen only by you. Learn more ›
×
You can save this tab as Personal to edit and correct it or add notes. All changes will be seen only by you. Learn more »
launch autoscroll
font size
0
reset
how to read this tab
guitar tuner
edit
Autoscroll
slow
fast
+/-
esc
set tempo
stop
Intro:
D|----------------------------|
A|----------------------------|
F|----------------------------|
C|--------4----5----4---------| x4
G|-----7----7----7------------|
D|--0-------------------------|

D|--------------------------------------------------------|
A|o--------------------------------------3-1h3h1p0--------|
F|--------------------------------------------------------|
C|--------5----7----5~----9--7--5-------------------------| 
G|o-----7----7----7-----------------------------------0-3-|
D|--0-----------------------------------------------------|

D|-------------------------------------------|
A|-----------------------------------8---7---|
F|------5------4-----------------------------|
C|--------------------5s7-------7------7-----| 
G|--3------3------3----------5---------------|
D|-------------------------------------------|

D|-------------------------------------------------------|
A|--------------------------------------3-1h3h1p0--------|
F|-------------------------------------------------------|
C|--------5----7----5~----9--7--5------------------------| 
G|-----7----7----7-----------------------------------0-3-|
D|--0----------------------------------------------------|

D|--------------------------------------------|
A|-----------------------------------8-7-5---o|
F|------5------4------------------------------| x2
C|--------------------5/7-------7-------------| 
G|--3------3------3----------5---------------o|
D|--------------------------------------------|

D|-------------------------------------------------------|
A|--------------------------------------3-1h3h1p0--------|
F|-------------------------------------------------------|
C|--------5----7----5~----9--7--5------------------------| 
G|-----7----7----7-----------------------------------0-3-|
D|--0----------------------------------------------------|

D|-------------------------------------------|
A|-----------------------------------8---7---|
F|------5------4-----------------------------|
C|--------------------5s7-------7------7-----| 
G|--3------3------3----------5---------------|
D|-------------------------------------------|

D|-------------------------------------------------------|
A|--------------------------------------3-1h3h1p0--------|
F|-------------------------------------------------------|
C|--------5----7----5~----9--7--5------------------------| 
G|-----7----7----7---------------------------------------|
D|--0----------------------------------------------------|

D|------------------------------------|
A|------------------------------------|
F|-------5-----5/7--5--4--------------|
C|------------------------7~----------| 
G|-0-3--------------------------------|
D|------------------------------------|
Suggest correction
Creating personal tab
Creating personal tab
You can edit any tab online and save it as your Personal.

You can edit, replace or remove any tab part or add personal notes – all changes will be seen only by you.

Personal tabs can be accessed anytime from any device, even offline.
Learn more »
comments
print report bad tab
1 comment total.
0 reply
misguidedidiot 26 Apr 17, 2014 10:05 PM

giving you guys a place to start haha

guest
You may want to rate the tab now too:
select rating
Wanna post a correction for this tab? Suggest correction