Oops, an error
Loading. Please wait.

Knives And Pens Tab

version 3
version 3
13,828 views 6 this week
1 commentread comment
1 2 3 4 5
please rate
add to favorites
launch autoscroll
font size
0
reset
how to read this tab
guitar tuner
Autoscroll
slow
fast
+/-
esc
set tempo
stop
Help us to improve Ultimate-Guitar.com Take our survey!
×
Author
Difficulty
Tuning
intermediate
D A D G B E
sorry i don't know the whole song but i know a bit more than the intro... this is how I 
it. I did learn it from another tab but made corrections myself by listening in slomo 
Sorry if it's wrong i'll accept corrections.
        tuning:Drop D Dadgbe or if you say it this way Ebgdad
tab key: h=hammer on  p=pull off  ~=let ring (hold the note)


e------------------------------------------------------------|
b------------------------------------------------------------|
g------------------------------------------------------------|
d---------------7-5--------8-------------14---10h12p10h12p10-|
a----10-12-8-7-5----8-7-8---12-8-10-10-----------------------|
D-0-0-------------------8-8---------10-10---10---------------|
                                                                reapeat twice

e--------------------------------------------------------|
b--------------------------------------------------------|
g--------------------------------------------------------|
d---------------7-5--------8-------------15-14-12--------|
a----10-12-8-7-5----8-7-8---12-8-10-10-----------13-12---|
D-0-0-------------------8-8---------10-10-------------12-|

e------------------------------------------------------------|
b------------------------------------------------------------|
g------------------------------------------------------------|
d---------------7-5--------8-------------14---10h12p10h12p10-|
a----10-12-8-7-5----8-7-8---12-8-10-10-----------------------|
D-0-0-------------------8-8---------10-10---10---------------|


e-------------------------------------|
b-------------------------------------|
g-------------------------------------|
d--------------7-5--------8-----------|
a----1-12-8-7-5----8-7-8---12-10-8-10-|
D-0-0------------------8-8------------|


e----------------------------------------------------------------------------|
b----------------------------------------------------------------------------|
g----------------------------------------------------------------------------|
d-0~-7~-8~~---0~-7~-8-0--0-0-0-0-7--7-7-7-7-8--8-8-8-8-0--0-0-0-0-7--7-7-7-7-|
a-0~-7~-8~~---0~-7~-8-0--0-0-0-0-7--7-7-7-7-8--8-8-8-8-0--0-0-0-0-7--7-7-7-7-|
D-0~-7~-8~~---0~-7~-8-0--0-0-0-0-7--7-7-7-7-8--8-8-8-8-0--0-0-0-0-7--7-7-7-7-|

e--------------17-20-17-----------------------17-18-17----------------------|
b------------18--------18-------------------18--------18--------------------|
g------------------------17-----------------------------17------------------|
d-8--8-8-8-8---------------19-17-19-17--17----------------19-17-19-17--17---|
a-8--8-8-8-8--------------------------20--20-------------------------20--20-|
D-8--8-8-8-8----------------------------------------------------------------|


e-20-17-18-17----------------------|
b------------18--------------------|
g--------------17------------------|
d----------------19-17-19-17--17---|
a---------------------------20--20-|
D----------------------------------|

This is all I know. Enjoy :D as I said I might be wrong so correct me if I am so I can 
it. this is just how i play it
Suggest correction
Give kudos to tab author, rate the tab!
1 2 3 4 5
comments
print report bad tab
1 comment total.
+1 reply
bigbassphoenix 10 wrote on July 4 2013, 06:06 am


e-------------------------------------------------------------------------
b-------------------------------------------------------------------------
g--------------------------------------------------------9----------------
d---------5---------------7-5---------8---7-------------------10h12p10h12p
a-----8-------8---7h8p7-5-----8-7-------------8h10------------------------
D-0-0---0---0---0-----------------8-8---8---8------10-10---10-------------

guest
You may want to rate the tab now too:
select rating
Please do not post tabs as comments. Select "correction" instead!