Oops, an error
Loading. Please wait.

Lost It All Bass Tab

version 1
version 1

Whole song

Interactive

3,184 views 6 this week
no commentswrite comment
1 2 3 4 5
excellent!
x 3
add to favorites
launch autoscroll
font size
0
reset
guitar tuner
Tab Pro tools
  • play this tab
  • loop segment
  • change instrument
  • show fretboard
  • metronome
×
Best way to learn
"Lost It All"
Autoscroll
slow
fast
+/-
esc
set tempo
stop
Contributor
Tuning
C# G# C# F# A# D#
0:38
F#|-----------------------------------------------------------------|
C#|-----------------------------------------------------------------|
G#|-2-------0-----------------------2-------0-----------------------|
C#|-----------------5-------r-----------------------5-------r-------|
    1 2 3 4 1 2 3 4 1 2 3 4 1 2 3 4 1 2 3 4 1 2 3 4 1 2 3 4 1 2 3 4

F#|-----------------------------------------------------------------|
C#|-----------------------------------------------------------------|
G#|-2-------0-----------------------2-------0-----------------------|
C#|-----------------5-------2---4-------------------5---------------|
    1 2 3 4 1 2 3 4 1 2 3 4 1 2 3 4 1 2 3 4 1 2 3 4 1 2 3 4 1 2 3 4

1:13
F#|-----------------------------------------------------------------|
C#|-----------------------------------------------------------------|
G#|-0-------2-----------------------0-------2-----------------------|
C#|-----------------5-------5-----------------------5-------5-------|
    1 2 3 4 1 2 3 4 1 2 3 4 1 2 3 4 1 2 3 4 1 2 3 4 1 2 3 4 1 2 3 4

F#|-----------------------------------------------------------------|
C#|-----------------------------------------------------------------|
G#|-0-------2-----------------------0-------2-----------------------|
C#|-----------------5-------5-----------------------5---------------|
    1 2 3 4 1 2 3 4 1 2 3 4 1 2 3 4 1 2 3 4 1 2 3 4 1 2 3 4 1 2 3 4

1:49
F#|-----------------------------------------------------------------|
C#|-----------------------------------------------------------------|
G#|-2---------------------------------------------------------------|
C#|---------------------------------------------------------/-9-9-\-|
    1 + 2 + 3 + 4 + 1 + 2 + 3 + 4 + 1 + 2 + 3 + 4 + 1 + 2 + 3 + 4 + 

1:57
F#|-----------------------------------------------------------------|
C#|---------------------------------5-----5-5---5-------------------|
G#|-2-----2-2---2-----5-5---5---5---------------------------------0-|
C#|---------------------------------------------------2-2---2---2---|
    1 + 2 + 3 + 4 + 1 + 2 + 3 + 4 + 1 + 2 + 3 + 4 + 1 + 2 + 3 + 4 + 

F#|-----------------------------------------------------------------|
C#|-----------------------------------------------------------------|
G#|-2-----2-2---2-----5-5---5---5-----------------------------------|
C#|---------------------------------5-----5-5---5---5-4-2-0-5-4-2-0-|
    1 + 2 + 3 + 4 + 1 + 2 + 3 + 4 + 1 + 2 + 3 + 4 + 1 + 2 + 3 + 4 + 

2:14
F#|-----------------------------------------------------------------|
C#|---------------------------------5-----5-5---5-------------------|
G#|-2-----2-2---2---5-5-5---5---5-----------------------------0---0-|
C#|---------------------------------------------------2-2---2---2---|
    1 + 2 + 3 + 4 + 1 + 2 + 3 + 4 + 1 + 2 + 3 + 4 + 1 + 2 + 3 + 4 + 

F#|-----------------------------------------------------------------|
C#|---------------------------------5-----5-5---5-------------------|
G#|-2-----2-2---2-----5-5---5---5-----------------------------------|
C#|-------------------------------------------------5-------\-------|
    1 + 2 + 3 + 4 + 1 + 2 + 3 + 4 + 1 + 2 + 3 + 4 + 1 + 2 + 3 + 4 + 

2:31
F#|-------------------------------------------------------------------|
C#|o-----------------------------------------------------------------o|
G#|o-0-----0-0---0-----2-2---2---2-2---------------------------------o|
C#|----------------------------------5-----5-5---5-----5-5---5-5-5-5--|
     1 + 2 + 3 + 4 + 1 + 2 + 3 + 4 + 1 + 2 + 3 + 4 + 1 + 2 + 3 + 4 + 

2:48
F#|-----------------------------------------------------------------|
C#|-----------------------------------------------------------------|
G#|-0-----0-0---------2-2-----2-2-2---------------------------------|
C#|---------------------------------5-----5-5---5---5-5-5---5-5-5-5-|
    1 + 2 + 3 + 4 + 1 + 2 + 3 + 4 + 1 + 2 + 3 + 4 + 1 + 2 + 3 + 4 + 

F#|-----------------------------------------------------------------|
C#|-----------------------------------------------------------------|
G#|-0-----0-0---0---2-2-2-----2-2-2---------------------------------|
C#|---------------------------------5-----5-5---5-----5-5---5-4-2-0-|
    1 + 2 + 3 + 4 + 1 + 2 + 3 + 4 + 1 + 2 + 3 + 4 + 1 + 2 + 3 + 4 + 

3:05
F#|-----------------------------------------------------------------|
C#|-----------------------------------------------------------------|
G#|-2-------5-----------------------2-------5-----------------------|
C#|-----------------5-------------------------------5---------------|
    1 2 3 4 1 2 3 4 1 2 3 4 1 2 3 4 1 2 3 4 1 2 3 4 1 2 3 4 1 2 3 4

F#|-----------------------------------------------------------------|
C#|-----------------------------------------------------------------|
G#|-2-------5-----------------------2-------5-----------------------|
C#|-----------------5-------------------------------5---------------|
    1 2 3 4 1 2 3 4 1 2 3 4 1 2 3 4 1 2 3 4 1 2 3 4 1 2 3 4 1 2 3 4

3:34
F#|-------------------------------------------------------------------|
C#|o-----------------------------------------------------------------o|
G#|o-5-------5-5-5-----0-0---0---0-----------------------------------o| x4
C#|----------------------------------2-------2-2-2-----5-5---5---5----|
     1 + 2 + 3 + 4 + 1 + 2 + 3 + 4 + 1 + 2 + 3 + 4 + 1 + 2 + 3 + 4 + 

4:03
F#|-----------------------------------------------------------------|
C#|-----------------------------------------------------------------|
G#|-5-------5---5-----0-0---0-0-0-0---------------------------------|
C#|---------------------------------2---2-2-2---2-----5-5---5-5-5-5-|
    1 + 2 + 3 + 4 + 1 + 2 + 3 + 4 + 1 + 2 + 3 + 4 + 1 + 2 + 3 + 4 + 

F#|-------------------------------------------------------------------|
C#|o-----------------------------------------------------------------o|
G#|o-5-----5-5---5-----0-0---0-0-0-0---------------------------------o| x3
C#|----------------------------------2---2-2-2---2-----5-5---5-5-5-5--|
     1 + 2 + 3 + 4 + 1 + 2 + 3 + 4 + 1 + 2 + 3 + 4 + 1 + 2 + 3 + 4 + 

4:32
F#|-----------------------------------------------------------------|
C#|-----------------------------------------------------------------|
G#|-5-----5-5---5-----0-0---0-0-0-0---------------------------------|
C#|---------------------------------2---2-2-2---2-----5-5---5-5-5-5-|
    1 + 2 + 3 + 4 + 1 + 2 + 3 + 4 + 1 + 2 + 3 + 4 + 1 + 2 + 3 + 4 + 

F#|-----------------------------------------------------------------|
C#|-----------------------------------------------------------------|
G#|-5---5-5-5---5-----4-4---4-4-4-4---------------------------------|
C#|---------------------------------2---2-2-2---2-----5-5---5-5-5-5-|
    1 + 2 + 3 + 4 + 1 + 2 + 3 + 4 + 1 + 2 + 3 + 4 + 1 + 2 + 3 + 4 + 

F#|-----------------------------------------------------------------|
C#|-----------------------------------------------------------------|
G#|-5-----5-5---5-----0-0---0-0-0-0---------------------------------|
C#|---------------------------------2---2-2-2---2-----5-5---5-5-5-5-|
    1 + 2 + 3 + 4 + 1 + 2 + 3 + 4 + 1 + 2 + 3 + 4 + 1 + 2 + 3 + 4 + 


F#|---------------------------------------------------------------------|
C#|---------------------------------------------------------------------|
G#|-5---5-5-5---5-----0-0---0-0-0-0---------------------------------5---|
C#|---------------------------------2---2-2-2---2-----5-5---5-5-5-5-----|
    1 + 2 + 3 + 4 + 1 + 2 + 3 + 4 + 1 + 2 + 3 + 4 + 1 + 2 + 3 + 4 + 
Tabbed by Dave Vucko
comments
We did not receive enough feedback on this tab! Please rate:
print report bad tab
1 2 3 4 5
I want to post or [tab]
guest
You may want to rate the tab now too:
select rating
Please do not post tabs as comments. Select "correction" instead!