Oops, an error
Loading. Please wait.

Love Isnt Always Fair bass

version 1
version 1

Whole song

Interactive

3,354 views 1 this week
3 commentsread comments
1 2 3 4 5
x 3
add to favorites
×
Save as Personal and add changes to this tab that will be seen only by you. Learn more ›
×
You can save this tab as Personal to edit and correct it or add notes. All changes will be seen only by you. Learn more »
launch autoscroll
font size
0
reset
guitar tuner
edit
Autoscroll
slow
fast
+/-
esc
set tempo
stop
Intro
F#|-------------------------------------------------------------------|
C#|o-----------------------------------------------------------------o|
G#|o---------------------------------3-3-3-3-3-3-3-3-----------------o|
C#|--2-2-2-2-2-2-2-2-0-0-0-0-0-0-0-0-----------------2-2-2-2-0-0-0-0--|
     1 2 3 4 1 2 3 4 1 2 3 4 1 2 3 4 1 2 3 4 1 2 3 4 1 2 3 4 1 2 3 4

F#|-----------------------------------------------------------------|
C#|-----------------------------------------------------------------|
G#|-----------------------------------------------------------------|
C#|-2-------------------------------------------------------14-\----|
    1 + 2 + 3 + 4 + 1 + 2 + 3 + 4 + 1 + 2 + 3 + 4 + 1 + 2 + 3 + 4 +

0:23 Main Riff
F#|------------------------------------------------------------------|
C#|o-----------------------------------------------------------------|
G#|o-----------------------------------------------------------------|
C#|--2-0-2-0-2-5-2-0-0-0-0-0-0-0-0-2---0-2-0-2-5-2-0-7-5-2-5-4-5-4-2-|
     1 + 2 + 3 + 4 + 1 + 2 + 3 + 4 + 1 + 2 + 3 + 4 + 1 + 2 + 3 + 4 +

F#|------------------------------------------------------------------|-----------------|
C#|-----------------------------------------------------------------o|-----------------|
G#|-----------------------------------------------0---0-0-3---3-3---o|-2---------------|
C#|---0-2-0-2-5-2-0-0-0-0-0-0-0-0-2---2-2-5---5-5--------------------|-----------------|
    1 + 2 + 3 + 4 + 1 + 2 + 3 + 4 + 1 + 2 + 3 + 4 + 1 + 2 + 3 + 4 +    1 + 2 + 3 + 4 +

0:43 Verse
F#|------------------------------------------------------------------|
C#|o-----------------------------------------------------------------|
G#|o-----------------------------------------------------------------|
C#|--2-0-2-0-2-5-2-0-0-0-0-0-0-0-0-2---0-2-0-2-5-2-0-7-5-2-5-4-5-4-2-|
     1 + 2 + 3 + 4 + 1 + 2 + 3 + 4 + 1 + 2 + 3 + 4 + 1 + 2 + 3 + 4 +

F#|------------------------------------------------------------------|-----------------|
C#|-----------------------------------------------------------------o|-----------------|
G#|-----------------------------------------------0---0-0-3---3-3---o|-2---------------|
C#|---0-2-0-2-5-2-0-0-0-0-0-0-0-0-2---2-2-5---5-5--------------------|-----------------|
    1 + 2 + 3 + 4 + 1 + 2 + 3 + 4 + 1 + 2 + 3 + 4 + 1 + 2 + 3 + 4 +    1 + 2 + 3 + 4 +

1:04 Chorus
F#|------------------------------------------------------------------|
C#|o-----------------------------------------------------------------|
G#|o-----------------------------------------------------------------|
C#|--2---2---2---2---2---2---2---2---5---5---5---5---5---5---5---5---|
     1 + 2 + 3 + 4 + 1 + 2 + 3 + 4 + 1 + 2 + 3 + 4 + 1 + 2 + 3 + 4 +

F#|------------------------------------------------------------------|
C#|-----------------------------------------------------------------o|
G#|---------------------------------4-4-4-4-4-4-4-4-3-3-3-3-5-5-5-5-o|
C#|-0---0---0---0---0---0---0---0------------------------------------|
    1 + 2 + 3 + 4 + 1 + 2 + 3 + 4 + 1 + 2 + 3 + 4 + 1 + 2 + 3 + 4 +

1:23 Interlude
F#|-----------------------------------------------------------------|
C#|-----------------------------------------------------------------|
G#|-----------------------------------------------------------------|
C#|-2-0-2-0-2-5-2-0-0-0-0-0-0-0-0-0-2-0-2-0-2-5-2-0-7---5---4-5-4-0-|
    1 + 2 + 3 + 4 + 1 + 2 + 3 + 4 + 1 + 2 + 3 + 4 + 1 + 2 + 3 + 4 +

1:28 Verse
F#|-----------------------------------------------------------------|
C#|-----------------------------------------------------------------|
G#|-----------------------------------------------------------------|
C#|-2---2-0-2-5-2-0-----------------2-0-2-0-2-5-2-0-7---5---4-5-4-0-|
    1 + 2 + 3 + 4 + 1 + 2 + 3 + 4 + 1 + 2 + 3 + 4 + 1 + 2 + 3 + 4 +

F#|-----------------------------------------------------------------|
C#|-----------------------------------------------------------------|
G#|-----------------------------------------------0---0-0-3---3-3---|
C#|-2---2-0-2-5-2-0---------------2---2-2-5---5-5-------------------|
    1 + 2 + 3 + 4 + 1 + 2 + 3 + 4 + 1 + 2 + 3 + 4 + 1 + 2 + 3 + 4 +

F#|-----------------------------------------------------------------|
C#|-----------------------------------------------------------------|
G#|-----------------------------------------------------------------|
C#|-2-0-2-0-2-5-2-0-0-0-0-0-0-0-0-0-2-0-2-0-2-5-2-0-7---5---4-5-4-0-|
    1 + 2 + 3 + 4 + 1 + 2 + 3 + 4 + 1 + 2 + 3 + 4 + 1 + 2 + 3 + 4 +

F#|-----------------------------------------------------------------|-----------------|
C#|-----------------------------------------------------------------|-----------------|
G#|-----------------------------------------------0---0-0-3---3-3---|-2-----2-2---2---|
C#|-2-0-2-0-2-5-2-0-0-0-0-0-0-0-0-2---2-2-5---5-5-------------------|-----------------|
    1 + 2 + 3 + 4 + 1 + 2 + 3 + 4 + 1 + 2 + 3 + 4 + 1 + 2 + 3 + 4 +   1 + 2 + 3 + 4 +

1:49 Chorus
F#|------------------------------------------------------------------|
C#|o-----------------------------------------------------------------|
G#|o-----------------------------------------------------------------|
C#|--2---2---2---2---2---2---2---2---5---5---5---5---5---5---5---5---|
     1 + 2 + 3 + 4 + 1 + 2 + 3 + 4 + 1 + 2 + 3 + 4 + 1 + 2 + 3 + 4 +

F#|------------------------------------------------------------------|
C#|-----------------------------------------------------------------o|
G#|---------------------------------4-4-4-4-4-4-4-4-3-3-3-3-5-5-5-5-o|
C#|-0---0---0---0---0---0---0---0------------------------------------|
    1 + 2 + 3 + 4 + 1 + 2 + 3 + 4 + 1 + 2 + 3 + 4 + 1 + 2 + 3 + 4 +

2:08 Interlude
F#|-----------------------------------------------------------------|
C#|-----------------------------------------------------------------|
G#|-----------------------------------------------------------------|
C#|-2-0-2-0-2-5-2-0-0-0-0-0-0-0-0-0-2-0-2-0-2-5-2-0-7---5---4-5-4-0-|
    1 + 2 + 3 + 4 + 1 + 2 + 3 + 4 + 1 + 2 + 3 + 4 + 1 + 2 + 3 + 4 +

2:13 Verse
F#|------------------------------------------------------------------|
C#|o-----------------------------------------------------------------|
G#|o-----------------------------------------------------------------|
C#|--2---2-2-2-2---------2-2-2-2-----2---2-2-2-2---------2-2-2-2-----|
     1 + 2 + 3 + 4 + 1 + 2 + 3 + 4 + 1 + 2 + 3 + 4 + 1 + 2 + 3 + 4 +

F#|------------------------------------------------------------------|
C#|-----------------------------------------------------------------o|
G#|-----------------------------------------------------------------o|
C#|-2---2-2-2-2---------2-2-2-2-----0---0-0-0-0---------5-5-5-5------|
    1 + 2 + 3 + 4 + 1 + 2 + 3 + 4 + 1 + 2 + 3 + 4 + 1 + 2 + 3 + 4 +

2:32 Pre Solo
F#|-----------------------------------------------------------------|
C#|-----------------------------------------------------------------|
G#|-----------------------------------------------------------------|
C#|-2-------------------------------0-------------------------------|
    1 + 2 + 3 + 4 + 1 + 2 + 3 + 4 + 1 + 2 + 3 + 4 + 1 + 2 + 3 + 4 +

F#|-----------------------------------------------------------------|
C#|-----------------------------------------------------------------|
G#|-3---------------------------------------------------------------|
C#|---------------------------------2---------------5---------------|
    1 + 2 + 3 + 4 + 1 + 2 + 3 + 4 + 1 + 2 + 3 + 4 + 1 + 2 + 3 + 4 +

2:42 Solo
F#|-----------------------------------------------------------------|
C#|-----------------------------------------------------------------|
G#|-----------------------------------------------------------------|
C#|-2---2-2-2-2---2-2---2-2-2-2---2-0---0-0-0-0---0-0---0-0-0-0---0-|
    1 + 2 + 3 + 4 + 1 + 2 + 3 + 4 + 1 + 2 + 3 + 4 + 1 + 2 + 3 + 4 +

F#|-----------------------------------------------------------------|
C#|-----------------------------------------------------------------|
G#|-3-3-3-3-3-3-3-3-3-3-3-3-3-3-3-3---------------------------------|
C#|---------------------------------2-2-2-2-2-2-2-2-5-5-5-5-5-5-5-5-|
    1 + 2 + 3 + 4 + 1 + 2 + 3 + 4 + 1 + 2 + 3 + 4 + 1 + 2 + 3 + 4 +

2:51
F#|-----------------------------------------------------------------|
C#|-----------------------------------------------------------------|
G#|-----------------------------------------------------------------|
C#|-2-2-2-2-2-2-2-2-2-2-2-2-2-2-2-2-0-0-0-0-0-0-0-0-0-0-0-0-0-0-0-0-|
    1 + 2 + 3 + 4 + 1 + 2 + 3 + 4 + 1 + 2 + 3 + 4 + 1 + 2 + 3 + 4 +

F#|-----------------------------------------------------------------|
C#|-----------------------------------------------------------------|
G#|-----------------2-2-2-2-2-2-2-2-----2-----3-----5---2---2-2-----|
C#|-5-5-5-5-5-5-5-5-----------------2-2-------------------------5-4-|
    1 + 2 + 3 + 4 + 1 + 2 + 3 + 4 + 1 + 2 + 3 + 4 + 1 + 2 + 3 + 4 +

2:51
F#|-----------------------------------------------------------------|
C#|-----------------------------------------------------------------|
G#|-----------------------------------------------------------------|
C#|-2-2-2-2-2-2-2-2-2-2-2-2-2-2-2-2-0-0-0-0-0-0-0-0-0-0-0-0-0-0-0-0-|
    1 + 2 + 3 + 4 + 1 + 2 + 3 + 4 + 1 + 2 + 3 + 4 + 1 + 2 + 3 + 4 +

F#|-----------------------------------------------------------------|
C#|-----------------------------------------------------------------|
G#|-----------------2-2-2-2-2-2-2-2-----2-----3-----5---2---2-2-2-2-|
C#|-5-5-5-5-5-5-5-5-----------------2-2-----------------------------|
    1 + 2 + 3 + 4 + 1 + 2 + 3 + 4 + 1 + 2 + 3 + 4 + 1 + 2 + 3 + 4 +

F#|---------------------------------|
C#|---------------------------------|
G#|-----2-----3-----5---2---2-2-----|
C#|-2-2-----------------------------|
    1 + 2 + 3 + 4 + 1 + 2 + 3 + 4 +

3:13
F#|-------------------------------------------------------------------|
C#|o-----------------------------------------------------------------o|
G#|o-----------------0-0-0-0-3-3-3-3-----------------0-0-0-0-3-3-3-3-o|
C#|--2-2-2-2-5-5-5-5-----------------2-2-2-2-5-5-5-5------------------|
     1 + 2 + 3 + 4 + 1 + 2 + 3 + 4 + 1 + 2 + 3 + 4 + 1 + 2 + 3 + 4 +

F#|---------------------------------|
C#|---------------------------------|
G#|-2-------------------------------|
C#|---------------------------------|
    1 + 2 + 3 + 4 + 1 + 2 + 3 + 4 +

3:24 Chorus
F#|------------------------------------------------------------------|
C#|o-----------------------------------------------------------------|
G#|o-----------------------------------------------------------------|
C#|--2---2---2---2---2---2---2---2---5---5---5---5---5---5---5---5---|
     1 + 2 + 3 + 4 + 1 + 2 + 3 + 4 + 1 + 2 + 3 + 4 + 1 + 2 + 3 + 4 +

F#|------------------------------------------------------------------|
C#|-----------------------------------------------------------------o|
G#|---------------------------------4-4-4-4-4-4-4-4-3-3-3-3-5-5-5-5-o|
C#|-0---0---0---0---0---0---0---0------------------------------------|
    1 + 2 + 3 + 4 + 1 + 2 + 3 + 4 + 1 + 2 + 3 + 4 + 1 + 2 + 3 + 4 +

3:44
F#|------------------------------------------------------------------o|
C#|o-----------------------------------------------------------------o|
G#|o-------------------------------4---4-4-4-4-4-4-3---3-3-5-5-5-5-2-o|
C#|--2-2-2-2-2-2-2-0---0-0-0-0-0-0------------------------------------|
     1 + 2 + 3 + 4 + 1 + 2 + 3 + 4 + 1 + 2 + 3 + 4 + 1 + 2 + 3 + 4 +

3:54
F#|------------------------------------------------------------------o|
C#|o-----------------------------------------------------------------o|
G#|o-------------------------------4-4-4-4-4-4-4-4-3-3-3-3-5-5-5-5-2-o|
C#|--2-2-2-2-2-2-2-0-0-0-0-0-0-0-0------------------------------------|
     1 + 2 + 3 + 4 + 1 + 2 + 3 + 4 + 1 + 2 + 3 + 4 + 1 + 2 + 3 + 4 +

4:03
F#|-----------------------------------------------------------------|
C#|-----------------------------------------------------------------|
G#|-----------------------------------------------------------------|
C#|-2-0-2-0-2-5-2-0-0-0-0-0-0-0-0-0-2-0-2-0-2-5-2-0-5-4-2-4---5---2-|
    1 + 2 + 3 + 4 + 1 + 2 + 3 + 4 + 1 + 2 + 3 + 4 + 1 + 2 + 3 + 4 +
Tabbed by Dave Vucko
Suggest correction
Creating personal tab
Creating personal tab
You can edit any tab online and save it as your Personal.

You can edit, replace or remove any tab part or add personal notes – all changes will be seen only by you.

Personal tabs can be accessed anytime from any device, even offline.
Learn more »
Give kudos to tab author, rate the tab!
1 2 3 4 5
comments
print report bad tab
3 comments total.
+1 reply
Teh D Bot 11,992 May 17, 2013 11:39 PM

Since the site won't let me update any of my tabs here is a more accurate version of this song
Intro
F#|-------------------------------------------------------------------|
C#|o-----------------------------------------------------------------o|
G#|o---------------------------------3-3-3-3-3-3-3-3-----------------o|
C#|--2-2-2-2-2-2-2-2-0-0-0-0-0-0-0-0-----------------2-2-2-2-0-0-0-0--|
1 2 3 4 1 2 3 4 1 2 3 4 1 2 3 4 1 2 3 4 1 2 3 4 1 2 3 4 1 2 3 4

F#|-----------------------------------------------------------------|
C#|-----------------------------------------------------------------|
G#|-----------------------------------------------------------------|
C#|-2-------------------------------------------------------14-\----|
1 + 2 + 3 + 4 + 1 + 2 + 3 + 4 + 1 + 2 + 3 + 4 + 1 + 2 + 3 + 4 +

0:23 Main Riff
F#|------------------------------------------------------------------|
C#|o-----------------------------------------------------------------|
G#|o-----------------------------------------------------------------|
C#|--2-0-2-0-2-5-2-0-0-0-0-0-0-0-0-2---0-2-0-2-5-2-0-7-5-2-5-4-5-4-2-|
1 + 2 + 3 + 4 + 1 + 2 + 3 + 4 + 1 + 2 + 3 + 4 + 1 + 2 + 3 + 4 +

F#|------------------------------------------------------------------|-----------------|
C#|-----------------------------------------------------------------o|-----------------|
G#|-----------------------------------------------0---0-0-3---3-3---o|-2---------------|
C#|---0-2-0-2-5-2-0-0-0-0-0-0-0-0-2---2-2-5---5-5--------------------|-----------------|
1 + 2 + 3 + 4 + 1 + 2 + 3 + 4 + 1 + 2 + 3 + 4 + 1 + 2 + 3 + 4 + 1 + 2 + 3 + 4 +

0:43 Verse
F#|------------------------------------------------------------------|
C#|o-----------------------------------------------------------------|
G#|o-----------------------------------------------------------------|
C#|--2-0-2-0-2-5-2-0-0-0-0-0-0-0-0-2---0-2-0-2-5-2-0-7-5-2-5-4-5-4-2-|
1 + 2 + 3 + 4 + 1 + 2 + 3 + 4 + 1 + 2 + 3 + 4 + 1 + 2 + 3 + 4 +

F#|------------------------------------------------------------------|-----------------|
C#|-----------------------------------------------------------------o|-----------------|
G#|-----------------------------------------------0---0-0-3---3-3---o|-2---------------|
C#|---0-2-0-2-5-2-0-0-0-0-0-0-0-0-2---2-2-5---5-5--------------------|-----------------|
1 + 2 + 3 + 4 + 1 + 2 + 3 + 4 + 1 + 2 + 3 + 4 + 1 + 2 + 3 + 4 + 1 + 2 + 3 + 4 +

1:04 Chorus
F#|------------------------------------------------------------------|
C#|o-----------------------------------------------------------------|
G#|o-----------------------------------------------------------------|
C#|--2---2---2---2---2---2---2---2---5---5---5---5---5---5---5---5---|
1 + 2 + 3 + 4 + 1 + 2 + 3 + 4 + 1 + 2 + 3 + 4 + 1 + 2 + 3 + 4 +

F#|------------------------------------------------------------------|
C#|-----------------------------------------------------------------o|
G#|---------------------------------4-4-4-4-4-4-4-4-3-3-3-3-5-5-5-5-o|
C#|-0---0---0---0---0---0---0---0------------------------------------|
1 + 2 + 3 + 4 + 1 + 2 + 3 + 4 + 1 + 2 + 3 + 4 + 1 + 2 + 3 + 4 +

1:23 Interlude
F#|-----------------------------------------------------------------|
C#|-----------------------------------------------------------------|
G#|-----------------------------------------------------------------|
C#|-2-0-2-0-2-5-2-0-0-0-0-0-0-0-0-0-2-0-2-0-2-5-2-0-7---5---4-5-4-0-|
1 + 2 + 3 + 4 + 1 + 2 + 3 + 4 + 1 + 2 + 3 + 4 + 1 + 2 + 3 + 4 +

1:28 Verse
F#|-----------------------------------------------------------------|
C#|-----------------------------------------------------------------|
G#|-----------------------------------------------------------------|
C#|-2---2-0-2-5-2-0-----------------2-0-2-0-2-5-2-0-7---5---4-5-4-0-|
1 + 2 + 3 + 4 + 1 + 2 + 3 + 4 + 1 + 2 + 3 + 4 + 1 + 2 + 3 + 4 +

F#|-----------------------------------------------------------------|
C#|-----------------------------------------------------------------|
G#|-----------------------------------------------0---0-0-3---3-3---|
C#|-2---2-0-2-5-2-0---------------2---2-2-5---5-5-------------------|
1 + 2 + 3 + 4 + 1 + 2 + 3 + 4 + 1 + 2 + 3 + 4 + 1 + 2 + 3 + 4 +

F#|-----------------------------------------------------------------|
C#|-----------------------------------------------------------------|
G#|-----------------------------------------------------------------|
C#|-2-0-2-0-2-5-2-0-0-0-0-0-0-0-0-0-2-0-2-0-2-5-2-0-7---5---4-5-4-0-|
1 + 2 + 3 + 4 + 1 + 2 + 3 + 4 + 1 + 2 + 3 + 4 + 1 + 2 + 3 + 4 +

F#|-----------------------------------------------------------------|-----------------|
C#|-----------------------------------------------------------------|-----------------|
G#|-----------------------------------------------0---0-0-3---3-3---|-2-----2-2---2---|
C#|-2-0-2-0-2-5-2-0-0-0-0-0-0-0-0-2---2-2-5---5-5-------------------|-----------------|
1 + 2 + 3 + 4 + 1 + 2 + 3 + 4 + 1 + 2 + 3 + 4 + 1 + 2 + 3 + 4 + 1 + 2 + 3 + 4 +

1:49 Chorus
F#|---------

+1 reply
Teh D Bot 11,992 May 17, 2013 11:39 PM

1:49 Chorus
F#|------------------------------------------------------------------|
C#|o-----------------------------------------------------------------|
G#|o-----------------------------------------------------------------|
C#|--2---2---2---2---2---2---2---2---5---5---5---5---5---5---5---5---|
1 + 2 + 3 + 4 + 1 + 2 + 3 + 4 + 1 + 2 + 3 + 4 + 1 + 2 + 3 + 4 +

F#|------------------------------------------------------------------|
C#|-----------------------------------------------------------------o|
G#|---------------------------------4-4-4-4-4-4-4-4-3-3-3-3-5-5-5-5-o|
C#|-0---0---0---0---0---0---0---0------------------------------------|
1 + 2 + 3 + 4 + 1 + 2 + 3 + 4 + 1 + 2 + 3 + 4 + 1 + 2 + 3 + 4 +

2:08 Interlude
F#|-----------------------------------------------------------------|
C#|-----------------------------------------------------------------|
G#|-----------------------------------------------------------------|
C#|-2-0-2-0-2-5-2-0-0-0-0-0-0-0-0-0-2-0-2-0-2-5-2-0-7---5---4-5-4-0-|
1 + 2 + 3 + 4 + 1 + 2 + 3 + 4 + 1 + 2 + 3 + 4 + 1 + 2 + 3 + 4 +

2:13 Verse
F#|------------------------------------------------------------------|
C#|o-----------------------------------------------------------------|
G#|o-----------------------------------------------------------------|
C#|--2---2-2-2-2---------2-2-2-2-----2---2-2-2-2---------2-2-2-2-----|
1 + 2 + 3 + 4 + 1 + 2 + 3 + 4 + 1 + 2 + 3 + 4 + 1 + 2 + 3 + 4 +

F#|------------------------------------------------------------------|
C#|-----------------------------------------------------------------o|
G#|-----------------------------------------------------------------o|
C#|-2---2-2-2-2---------2-2-2-2-----0---0-0-0-0---------5-5-5-5------|
1 + 2 + 3 + 4 + 1 + 2 + 3 + 4 + 1 + 2 + 3 + 4 + 1 + 2 + 3 + 4 +

2:32 Pre Solo
F#|-----------------------------------------------------------------|
C#|-----------------------------------------------------------------|
G#|-----------------------------------------------------------------|
C#|-2-------------------------------0-------------------------------|
1 + 2 + 3 + 4 + 1 + 2 + 3 + 4 + 1 + 2 + 3 + 4 + 1 + 2 + 3 + 4 +

F#|-----------------------------------------------------------------|
C#|-----------------------------------------------------------------|
G#|-3---------------------------------------------------------------|
C#|---------------------------------2---------------5---------------|
1 + 2 + 3 + 4 + 1 + 2 + 3 + 4 + 1 + 2 + 3 + 4 + 1 + 2 + 3 + 4 +

2:42 Solo
F#|-----------------------------------------------------------------|
C#|-----------------------------------------------------------------|
G#|-----------------------------------------------------------------|
C#|-2---2-2-2-2---2-2---2-2-2-2---2-0---0-0-0-0---0-0---0-0-0-0---0-|
1 + 2 + 3 + 4 + 1 + 2 + 3 + 4 + 1 + 2 + 3 + 4 + 1 + 2 + 3 + 4 +

F#|-----------------------------------------------------------------|
C#|-----------------------------------------------------------------|
G#|-3-3-3-3-3-3-3-3-3-3-3-3-3-3-3-3---------------------------------|
C#|---------------------------------2-2-2-2-2-2-2-2-5-5-5-5-5-5-5-5-|
1 + 2 + 3 + 4 + 1 + 2 + 3 + 4 + 1 + 2 + 3 + 4 + 1 + 2 + 3 + 4 +

2:51
F#|-----------------------------------------------------------------|
C#|-----------------------------------------------------------------|
G#|-----------------------------------------------------------------|
C#|-2-2-2-2-2-2-2-2-2-2-2-2-2-2-2-2-0-0-0-0-0-0-0-0-0-0-0-0-0-0-0-0-|
1 + 2 + 3 + 4 + 1 + 2 + 3 + 4 + 1 + 2 + 3 + 4 + 1 + 2 + 3 + 4 +

F#|-----------------------------------------------------------------|
C#|-----------------------------------------------------------------|
G#|-----------------2-2-2-2-2-2-2-2-----2-----3-----5---2---2-2-----|
C#|-5-5-5-5-5-5-5-5-----------------2-2-------------------------5-4-|
1 + 2 + 3 + 4 + 1 + 2 + 3 + 4 + 1 + 2 + 3 + 4 + 1 + 2 + 3 + 4 +

2:51
F#|-----------------------------------------------------------------|
C#|-----------------------------------------------------------------|
G#|-----------------------------------------------------------------|
C#|-2-2-2-2-2-2-2-2-2-2-2-2-2-2-2-2-0-0-0-0-0-0-0-0-0-0-0-0-0-0-0-0-|
1 + 2 + 3 + 4 + 1 + 2 + 3 + 4 + 1 + 2 + 3 + 4 + 1 + 2 + 3 + 4 +

F#|-----------------------------------------------------------------|
C#|-----------------------------------------------------------------|
G#|-----------------2-2-2-2-2-2-2-2-----2-----3-----5---2---2-2-2-2-|
C#|-5-5-5-5-5-5-5-5-----------------2-2-----------------------------|
1 + 2 + 3 + 4 + 1 + 2 + 3 + 4 + 1 + 2 + 3 + 4 + 1 + 2 + 3 + 4 +

F#|---------------------------------|
C#|---------------------------------|
G#|-----2-----3-----5---2---2-2-----|
C#|-2-2-----------------------------|
1 + 2 + 3 + 4 + 1 + 2 + 3 + 4 +

3:13
F#|-------------------------------------------------------------------|
C#|o-----------------------------------------------------------------o|
G#|o-----------------0-0-0-0-3-3-3-3-----------------0-0-0-0-

+1 reply
Teh D Bot 11,992 May 17, 2013 11:40 PM

3:13
F#|-------------------------------------------------------------------|
C#|o-----------------------------------------------------------------o|
G#|o-----------------0-0-0-0-3-3-3-3-----------------0-0-0-0-3-3-3-3-o|
C#|--2-2-2-2-5-5-5-5-----------------2-2-2-2-5-5-5-5------------------|
1 + 2 + 3 + 4 + 1 + 2 + 3 + 4 + 1 + 2 + 3 + 4 + 1 + 2 + 3 + 4 +

F#|---------------------------------|
C#|---------------------------------|
G#|-2-------------------------------|
C#|---------------------------------|
1 + 2 + 3 + 4 + 1 + 2 + 3 + 4 +

3:24 Chorus
F#|------------------------------------------------------------------|
C#|o-----------------------------------------------------------------|
G#|o-----------------------------------------------------------------|
C#|--2---2---2---2---2---2---2---2---5---5---5---5---5---5---5---5---|
1 + 2 + 3 + 4 + 1 + 2 + 3 + 4 + 1 + 2 + 3 + 4 + 1 + 2 + 3 + 4 +

F#|------------------------------------------------------------------|
C#|-----------------------------------------------------------------o|
G#|---------------------------------4-4-4-4-4-4-4-4-3-3-3-3-5-5-5-5-o|
C#|-0---0---0---0---0---0---0---0------------------------------------|
1 + 2 + 3 + 4 + 1 + 2 + 3 + 4 + 1 + 2 + 3 + 4 + 1 + 2 + 3 + 4 +

3:44
F#|------------------------------------------------------------------o|
C#|o-----------------------------------------------------------------o|
G#|o-------------------------------4---4-4-4-4-4-4-3---3-3-5-5-5-5-2-o|
C#|--2-2-2-2-2-2-2-0---0-0-0-0-0-0------------------------------------|
1 + 2 + 3 + 4 + 1 + 2 + 3 + 4 + 1 + 2 + 3 + 4 + 1 + 2 + 3 + 4 +

3:54
F#|------------------------------------------------------------------o|
C#|o-----------------------------------------------------------------o|
G#|o-------------------------------4-4-4-4-4-4-4-4-3-3-3-3-5-5-5-5-2-o|
C#|--2-2-2-2-2-2-2-0-0-0-0-0-0-0-0------------------------------------|
1 + 2 + 3 + 4 + 1 + 2 + 3 + 4 + 1 + 2 + 3 + 4 + 1 + 2 + 3 + 4 +

4:03
F#|-----------------------------------------------------------------|
C#|-----------------------------------------------------------------|
G#|-----------------------------------------------------------------|
C#|-2-0-2-0-2-5-2-0-0-0-0-0-0-0-0-0-2-0-2-0-2-5-2-0-5-4-2-4---5---2-|
1 + 2 + 3 + 4 + 1 + 2 + 3 + 4 + 1 + 2 + 3 + 4 + 1 + 2 + 3 + 4 +
Tabbed by Dave Vucko

guest
You may want to rate the tab now too:
select rating
Wanna post a correction for this tab? Suggest correction