Oops, an error
Loading. Please wait.

Morticians Daughter tab

version 1
version 1

Whole song

1,523 views 39 this week
no commentswrite comment
1 2 3 4 5
1 last vote to show rating
add to favorites
×
Save as Personal and add changes to this tab that will be seen only by you. Learn more ›
×
You can save this tab as Personal to edit and correct it or add notes. All changes will be seen only by you. Learn more »
launch autoscroll
font size
0
reset
how to read this tab
guitar tuner
edit
Autoscroll
slow
fast
+/-
esc
set tempo
stop
Author
-------------------------------------------------------------------------------
                             MORTICAINS DAUGHTER - Black Veil Brides
-------------------------------------------------------------------------------
Tabbed by:jaytheghost
E-mail:ivymason236@gmail.com NO SPAM PLEASE

Tuning:Standard E A D G B e

Intro:

e|----------------------------------------------------------------------------|
B|----------------------------------------------------------------------------|
G|---9-9-9-9-9-9-9-9----6-6-6-6-6-6-6-6----2-2-2-2-2-2-2-2----4-4-4-4-4-4-4-4-|
D|--9--9-9-9-9-9-9-9---6--6-6-6-6-6-6-6---2--2-2-2-2-2-2-2---4--4-4-4-4-4-4-4-|
A|-7---7-7-7-7-7-7-7--4---4-4-4-4-4-4-4--0---0-0-0-0-0-0-0--2---2-2-2-2-2-2-2-|
E|----------------------------------------------------------------------------|

e|----------------------------------------------------------------------------|
B|----------------------------------------------------------------------------|
G|-9-9-9-9-9-9-9-9-9--6-6-6-6-6-6-6-6-6--2-2-2-2-2-2-2-2-2--4-4-4-4-4-4-4-4-4-|
D|-9-9-9-9-9-9-9-9-9--6-6-6-6-6-6-6-6-6--2-2-2-2-2-2-2-2-2--4-4-4-4-4-4-4-4-4-|
A|-7-7-7-7-7-7-7-7-7--4-4-4-4-4-4-4-4-4--0-0-0-0-0-0-0-0-0--2-2-2-2-2-2-2-2-2-|
E|----------------------------------------------------------------------------|

Verse(s): 

e|----------------------------------------------------------------------------|
B|----------------------------------------------------------------------------|
G|-9-9-9-9-9-9-9-9-9--6-6-6-6-6-6-6-6-6--2-2-2-2-2-2-2-2-2--4-4-4-4-4-4-4-4-4-|
D|-9-9-9-9-9-9-9-9-9--6-6-6-6-6-6-6-6-6--2-2-2-2-2-2-2-2-2--4-4-4-4-4-4-4-4-4-|
A|-7-7-7-7-7-7-7-7-7--4-4-4-4-4-4-4-4-4--0-0-0-0-0-0-0-0-0--2-2-2-2-2-2-2-2-2-|
E|----------------------------------------------------------------------------|

(Repeat the above tab ^^^ 5x for verse 1, 
4x for verse 2, 3x for chorus 1, 1x for break, 
4x for verse 3, 5x for chorus 2 and then once for 
outro with tab below at the end after the last power chord:)

e|---|
B|---|
G|-9-|
D|-9-|
A|-7-|
E|---|


I've listened to BVB my whole life and know this songs and the lyrics 
by heart and could recite them at any moment. 
These tabs are as accurate as possible, they sound just like the song.
 But if you happen to find something wrong with the tabs, email me, 
because even though I'm 100% sure these are acurrate, people make mistakes 
*-* Hope this works! -Jay

            
            
Suggest correction
Creating personal tab
Creating personal tab
You can edit any tab online and save it as your Personal.

You can edit, replace or remove any tab part or add personal notes – all changes will be seen only by you.

Personal tabs can be accessed anytime from any device, even offline.
Learn more »
Give kudos to tab author, rate the tab!
1 2 3 4 5
comments
print report bad tab
guest
You may want to rate the tab now too:
select rating
Wanna post a correction for this tab? Suggest correction