Oops, an error
Loading. Please wait.

Perfect Weapon tab

2,163 views 3 this week
no commentswrite comment
1 2 3 4 5
x 3
add to favorites
×
Save as Personal and add changes to this tab that will be seen only by you. Learn more ›
×
You can save this tab as Personal to edit and correct it or add notes. All changes will be seen only by you. Learn more »
launch autoscroll
font size
0
reset
how to read this tab
guitar tuner
backing track
0:00
0:00
edit
Autoscroll
slow
fast
+/-
esc
set tempo
stop
Difficulty
____________________________________________________________________________

                      Perfect Weapon - Black Veil Brides
____________________________________________________________________________

Tablatura de: oskar Garcia
Facebook:Oskar Garcia Mendoza
Black Veil Brides – Perfect Weapon
176 bpm
Intro


   INTRO
   eb|------------------------------------------------|
   Bb|------------------------------------------------|
   Gb|------------------------------------------------|
   Db|--------7---------------------2-------5-5-5-3---|
   Ab|-------------3h5--------------------------------|
   Db|---0--0---0---------0—3~---0-----0--------------|
         .  .   .         .      .     .

   eb|-------------------------------------------------|
   Bb|-------------------------------------------------|
   Gb|-------------------------------------------------|
   Db|---------7----------------------2-------5-5-5-5--|
   Ab|--------------3H5-----------------------3-3-3-3--|
   Db|---0--0----0---------0--3~---0-----0-------------|
 Pm      .  .    .         .       .     .

   eb|-------------------------------------------------|
   Bb|-------------------------------------------------|
   Gb|-------------------------------------------------|
   Db|---------7----------------------7-----10-10-10-8-|
   Ab|--------------3H5--------------------------------|
   Db|---8--8----8---------0--8~---8-----8-------------|
 Pm      .  .    .         .       .     .

   eb|-------------------------------------------------|
   Bb|-------------------------------------------------|
   Gb|-------------------------------------------------|
   Db|---------7---------------------------------------|
   Ab|--------------3H5-----------------------/8/7-----|
   Db|---8--8----8---------0-0---7--5--3--5------------|
 Pm      .  .    .         . .

   VERSE
   eb|-------------------------------------------------|
   Bb|-------------------------------------------------|
   Gb|-------------------------------------------------|
   Db|---0--------3----/----10-----10~-8~--------------|
   Ad|---0--------3----/----8-------------10~----------|
   Db|---0--------3----/----7--------------------------|
 Pm


   eb|---------------------------------------------------------------------------|
   Bb|---------------------------------------------------------------------------|
   Gb|---------------------------------------------------------------------------|
       Db|---------------------------7-5---5---3-------------3-----3---5---7-7---|
   Ab|-------------------------------7-----3-------------3-----------------------|
   Db|---0---0-0-000-0-0---0-0-0-----------3---3-3-333-3-3---0---0---0-----------|
 Pm     .   . . ...  . .   . . .              . . ... .

  Eb|--------------------------------------------------------------------------------|
  Bb|--------------------------------------------------------------------------------|
  Gb|--------------------------------------------------------------------------------|
  Db|-8-------------8-------7-------------10--------------------7H9P7-—-7-9-7-8/10---|
  Ab|-8-------------8—0-10P0-10-8-10-8p7--10-------------------------10--------------|
    Db|-8---8-8-888-8-8---------------------10-10-10-101010-10-10--------------------|
 Pm       . . ... .                          .   .  . . .  .  .

   PRE CHORUS
  eb|----------------------------------------------------------------------|
  Bb|----------------------------------------------------------------------|
  Gb|-----------------------------7p5p3------------------------------------|
  Db|---3-3-3-3-3-3-3-3--5-5-5-5----------7p5p3P0-------7p0-5\2-2h3--------|
  Ab|---1-1-1-1-1-1-1-1--3-3-3-3-------------------------------------------|
  Db|---------------------------------------------0-0-0-------------0-000-0|
Pm                                                . . .             . ... .

  eb|------------|  |----------------------------------------------|
  Bb|------------|  |----------------------------------------------|
  Gb|------------|  |--------------------7-9-7-9br-5-7-------------|
  Db|--7p5--2h3--|  |--8-8---3-3---5-5-----------------------------|
  Ad|------------|  |--8-8---3-3---5-5-----------------------------|
  Db|------------|  |--8-8---3-3---5-5-----------------------------|
 Pm

   CHORUS
  eb|----------------------------------------------------------------------|
  Bb|----------------------------------------------------------------------|
  Gb|----------------------------------------------------------------------|
  Db|-10-10-10-10-10-10-10-10-10-10-10-10-10-10-10--10-10-10-10-10-10-10-10|
  Ab|-8--8--8--8--8--8--8--8--8--8--8--8--8--8--8---8--8--8--8--8--8--8--8-|
  Db|-8--8--8--8--8--8--8--8--8--8--8--8--8--8--8---7--7--7--7--7--7--7--7-|

  eb|----------------------------------------------------------------------|
  Bb|----------------------------------------------------------------------|
  Gb|----------------------------------------------------------------------|
  Db|-10-10-10-10-10-x--10-\--------7----------------------2-------5-5-5-3-|
  Ab|-8--8--8--8--8--x--10-\-------------3H5-------------------------------|
  Db|-7--7--7--7--7--x--10-\---0--0---0---------0--3~---0-----0------------|
 Pm                            .  .   .         .       .     .

  eb|------------------------------------------------|
  Bb|------------------------------------------------|
  Gb|------------------------------------------------|
  Db|--------7----------------------2-------5-5-5-5--|
  Ab|-------------3H5-----------------------3-3-3-3--|
  Db|--0--0----0---------0--3~---0-----0-------------|
 Pm    .  .    .         .       .     .





PRE BREAKDOWN THING
  eb|----------------------------------------------------------------|
  Bb|----------------------------------------------------------------|
  Gb|----------------------------------------------------------------|
  Db|----------------------------------------------------------------|
  Ab|----------------------------------------------------------------|
  Db|--0-00000-0-00000-0-00000-12\---0-00000-0-00000-0-00000-8-5-7-5-|
 Pm    . ..... . ..... . .....       . ..... . ..... . .....

  eb|---------------------------------|
  Bb|---------------------------------|
  Gb|---------------------------------|
  Db|---------------------------------|
  Ab|---------------------------/7~---|
  Db|--3-33333-3-33333-3-33333--------|
 Pm    . ..... . ..... . .....


   BREAKDOWN
  eb|------------------------------------------------------------|
  Bb|------------------------------------------------------------|
  Gb|---------------------------------------7-------7---7-10-9---|
  Db|-----------------------------------------7-7-7---7----------|
  Ab|--5---------5---5-8-7--------7---7-10-----------------------|
  Eb|-----0-0-0----0--------7-7-7---7----------------------------|
 Pm        . . .    .        . . .   .

  eb|----------------------------------------------------------------------|
  Bb|-------------8--------------------------------------------------------|
  Gb|-------7---9---(10) (7) (6)-------------------------------------------|
  Db|-7-7-7---7------------------(7) x 8-----------------------------------|
  Ab|----------------------------------------------------------------------|
  Db|----------------------------------------------------------------------|
 Pm
  eb|-----------------------------------------13----------13----13-16---|
  Bb|--------------------------------------------15-15-15----15---------|
  Gb|-7-------7---7-10-9----------9---9-11------------------------------|
  Db|---7-7-7---7--------11-11-11---11----------------------------------|
  Ab|-------------------------------------------------------------------|
  Db|-------------------------------------------------------------------|
 Pm
  eb|-15----------15----15-18---|
  Bb|----17-17-17----17---------|
  Gb|---------------------------|
  Db|---------------------------|
  Ab|---------------------------|
  Db|---------------------------|

  eb|----------------------------------17h18p17-15----------15------------|
  Bb|----------------------------------------------18-17-18----17---------|
  Gb|---------------------------------------------------------------------|
  Db|------7-------3-------5-------2--------------------------------------|
  Ab|------7-------3-------5-------2--------------------------------------|
  Db|---0--7----0--3----0--5----0--2--------------------------------------|
 Pm     .       .       .       .




   SOLO
  eb|--15-13------13------------------------------|
  Bb|--------15------15-13---15-13------13--------|
  Gb|------------------------------14------14-12--|
  Db|---------------------------------------------|
  Ab|---------------------------------------------|
  Db|---------------------------------------------|
 Pm

  eb|---------------------------------------------|
  Bb|---------------------------------------------|
  Gb|--14-12------12------------------------------|
  Db|--------15------15-12---15-12------12--------|
  Ab|------------------------------15------15-12--|
  Db|---------------------------------------------|
 Pm

  eb|----------------------------------------------------------------------|
  Bb|-------------------------------------------10-------------------------|
  Gb|----------------------10------10-12-10-12------12--10-12-10------10^--|
  Db|---------10-12-10-12------12---------------------------------12-------|
  Ab|--10-12---------------------------------------------------------------|
  Db|----------------------------------------------------------------------|
 Pm

  eb|-----------------------------------------------------------------|
  Bb|-18p15p13h15--18p15h18p15p13h15--18p15h18p15p13h15--18p15p13h15--|
  Gb|-----------------------------------------------------------------|
  Db|-----------------------------------------------------------------|
  Ab|-----------------------------------------------------------------|
  Db|---*Tap the 18's with your right hand*---------------------------|
  Pm

  eb|-------------------------------------------------------------------|
  Bb|-18p15p13h15-18p15p13h15-18p15p13h15-18p15p13h15-18p15h18p15p13h15-|
  Gb|-------------------------------------------------------------------|
  Db|-------------------------------------------------------------------|
  Ab|-------------------------------------------------------------------|
  Db|-------------------------------------------------------------------|
 Pm

  eb|-----------------12TP--13TP--15TP--13TP--15TP-15b--15b--15br--12-|
  Bb|--18p15h18p15p13-------------------------------------------------|
  Gb|-----------------------------------------------------------------|
  Db|-----------------------------------------------------------------|
  Ab|-----------------------------------------------------------------|
  Db|-----------------------------------------------------------------|
 Pm

  eb|----------13-15-13-15----15-------------------------------|
  Bb|-15b-------------------17----17-15-17-15-13-15-13-13---13-|
  Gb|-----------------------------------------------------15---|
  Db|----------------------------------------------------------|
  Ab|----------------------------------------------------------|
  Db|----------------------------------------------------------|
 Pm

  eb|----------------------------------------------------------------------|
  Bb|----------------------------------------------------------------------|
  Gb|--15-14-15-14-12-14-12-----12-------------------------/12-12-12~------|
  Db|------------------------15----15-14-15-14-12-12~----------------------|
  Ab|----------------------------------------------------------------------|
  Db|----------------------------------------------------------------------|
 Pm

  eb|---------------------------------------10-------------10--------------|
  Bb|--------------------------------------------10---13---13b-------------|
  Gb|--7h9p7TR----9h10p9TR----10h12p10TR-----------------------------------|
  Db|----------------------------------------------------------------------|
  Ab|----------------------------------------------------------------------|
  Db|----------------------------------------------------------------------|
 Pm
  eb|----------------------------------------------------------------------|
  Bb|----------------------------------------------------------------------|
  Gb|-----10---9P10---9~---12----15-15-15-14-------------------------------|
  Db|-0-0----0------0----0----0--------------------------------------------|
  Ab|----------------------------------------------------------------------|
  Db|----------------------------------------------------------------------|

  eb|----------------------------------------------------------------------|
  Bb|----------------------------------------------------------------------|
  Gb|-----10---9P10---9~---12----15-15-14/17-------------------------------|
  Db|-0-0----0------0----0----0--------------------------------------------|
  Ab|----------------------------------------------------------------------|
  Db|----------------------------------------------------------------------|(2)

  eb|----------------------------------------------------------------------|
  Bb|----------------------------------------------------------------------|
  Gb|----------------------------------------------------------------------|
  Db|---------------------5-------0-x--------------------------------------|
  Ab|-----------------------8-7-8-0-x--------------------------------------|
  Db|-0-003-005-008-007~----------0-x--------------------------------------|

            
            
Suggest correction
Creating personal tab
Creating personal tab
You can edit any tab online and save it as your Personal.

You can edit, replace or remove any tab part or add personal notes – all changes will be seen only by you.

Personal tabs can be accessed anytime from any device, even offline.
Learn more »
Give kudos to tab author, rate the tab!
1 2 3 4 5
comments
print report bad tab
guest
Wanna post a correction for this tab? Suggest correction