Oops, an error
Loading. Please wait.

Rebel Love Song solo tab

version 1
version 1

Solo

Whole song

Interactive

1,918 views 1 this week
no commentswrite comment
1 2 3 4 5
1 last vote to show rating
add to favorites
×
Save as Personal and add changes to this tab that will be seen only by you. Learn more ›
×
You can save this tab as Personal to edit and correct it or add notes. All changes will be seen only by you. Learn more »
launch autoscroll
font size
0
reset
how to read this tab
guitar tuner
backing track
0:00
0:00
edit
Autoscroll
slow
fast
+/-
esc
set tempo
stop
Author
-------------------------------------------------------------------------------
                             Black veil brides- Rebel love song
                            SOLO AND OUTRO RIFFS 100% ACCURATE
-------------------------------------------------------------------------------
Tabbed by: Kieran satchell
E-mail:Kazkieran@hotmail.co.uk
this is the SOLO AND OUTRO SOLOS AND RYTHEM GUITAR PARTS!
This guitar tab was made watching Jake Pitt's video of Rebel love song
tutorial. He makes it a real bitch to understand! hahahah!
This is pretty much dead on 100% but i'll say its 99.9% just
to be sure! Enjoy guys, email me if you have any problems
BE POLITE! I wont reply to unfriendly emails...or even read them

Tuning: Drop C#(C#G#C#F#A#D#)

SOLO
e|-------------------------------------------------------------------------|
B|--10/-12-12-12-12----12---12/14-14-14-14---14----14/15-15--17-17-17------|
G|------------------11---11----------------14---14-------------------------|
D|-------------------------------------------------------------------------|
A|-------------------------------------------------------------------------|
E|-------------------------------------------------------------------------|

                                      sweep--------------------------|
e|-----------------------------------------14-17p-14------------------------|
B|-15-h17p-15-14-15-14----14------------15-----------15---------------------|
G|---------------------17----17-16~---14----------------14------------------|
D|---------------------------------------------------------16---------------|
A|------------------------------------------------------------17-14---------|
E|--------------------------------------------------------------------------|

e|-------------------------------------------------------------------------|
B|-------------------------------------------------------------------------|
G|-------------------------------------------------------------------------|
D|-16-14-12-14-12-11~------------------------------------------------------|
A|-------------------------------------------------------------------------|
E|-------------------------------------------------------------------------|

e|--------------14-17-19-17-14---------------------------------------------|
B|-------------------------------------------------------------------------|
G|-----14-16-19----------------19-16-14------------------------------------|
D|-------------------------------------------------------------------------|
A|-17----------------------------------------------------------------------|
E|-------------------------------------------------------------------------|

e|-19-17-15---------------------------15-14-12------------------------------|
B|---------19-17-15-14-h15-14-------------------15-14-12-15-14-12-----------|
G|---------------------------18-15-14-----------------------------14-12-11--|
D|--------------------------------------------------------------------------|
A|--------------------------------------------------------------------------|
E|--------------------------------------------------------------------------|

e|--14-12-10---------------------------------------------------------------|
B|-----------14-12-10-14 12------------------------------------------------|
G|--------------------------14-12-11-9~------------------------------------|
D|-------------------------------------------------------------------------|
A|-------------------------------------------------------------------------|
E|-------------------------------------------------------------------------|

e|--------------------------------------------------------------------------|
B|--------------------------------------------------------------------------|
G|-11-9-h11-9-7-9-7-8-7-8---8-----------------------------------------------|
D|------------------------9---7~--------------------------------------------|
A|--------------------------------------------------------------------------|
E|--------------------------------------------------------------------------|

e|-------------------------------------------------------------15-14-14-14--|
B|--------------------------------------15-14-14-14-17-15-15-15-------------|
G|-------------14-12-12-12-16-14-14-14--------------------------------------|
D|-14-12-12-12--------------------------------------------------------------|
A|--------------------------------------------------------------------------|
E|--------------------------------------------------------------------------|

e|-19-18-17-15-17-18-19~---------------------------------------------------|
B|-------------------------------------------------------------------------|
G|-------------------------------------------------------------------------|
D|-------------------------------------------------------------------------|
A|-------------------------------------------------------------------------|
E|-------------------------------------------------------------------------|


OUTRO SOLO
e|--10---10---10----9---9----9----7---7---7----|
B|--13b--13b--13b~-12b-12b-12b~--10b-10b-10b~--|
G|---------------------------------------------|
D|---------------------------------------------|
A|---------------------------------------------|
E|---------------------------------------------|
>HERE YOU NEED TO SWITCH YOUR GUITAR TOGGLE TO THE MUFFLY SOUND (Rythem),  IT IS BEST FOR SWEEPING!
e|----14p-10---------------------------10--14p--10--|
B|-----------12--------------------12---------------|
G|---------------11------------11-------------------|
D|------------------12-----12-----------------------|
A|----------------------14--------------------------|
E|--------------------------------------------------|
Ok now this is sweep number 2. as you can see you have to play 16 and the 16 above, this
is very dfficult and you maybe thinking
"this is impossible" but i shit you not, it is possible, Jake Pitts suggested in his video "rolling
your finger" over the fret as you play the notes. after the sweep, i
think i hear a quick slide down the fret board before the final
ending riff*
e|----19p---14------------------------14-19p--14-QUICK SLIDE*17-15-14---------|
B|-------------15------------------15--------------------------------17--15~--|
G|----------------16------------16--------------------------------------------|
D|--------------------16-----16-----------------------------------------------|
A|-----------------------17---------------------------------------------------|
E|----------------------------------------------------------------------------|

Rythem: Jinxx 100% accurate. just learn the speed and rythem
The muted notes are either the two top (C#+G#)or just the top
string muted on the 2nd fret, these are strummed in a particular
rythem, you may need to listen to the song to understand it.
e|----------------------------------------------------------------------|
B|----------------------------------------------------------------------|
G|----------------------------------------------------------------------|
D|----------------------------------------------------------------------|
A|--2-2-2--------------------0-0-5-5---2-2-2---------------x-x-x-x-x-x--|
E|--------5-5-5-2-2-2-0-0-0-------------------5-5-5--2-2-2-x-x-x-x-x-x--|

e|-----------------------------------------------------------------|
B|-----------------------------------------------------------------|
G|-----------------------------------------------------------------|
D|-----------------------------------------------------------------|
A|-2-2-2-------------------0-0-5-5-2-2-2---------------------------|
E|-------5-5-5-2-2-2-0-0-0----------------5-5-5-2-2-2-2-2-2-2-2-2--|

e|-----------------------------------------------------------------------------------|
B|-----------------------------------------------------------------------------------|
G|-----------------------------------------------------------------------------------|
D|---7----5---4--2--0~---------------------------------------------------------------|
A|---7----5---4--2--0~---------------------------------------------------------------|
E|---7----5---4--2--0~---------------------------------------------------------------|

| /   slide up
| \   slide down
| h   hammer-on
| p   pull-off
| ~   vibrato
| +   harmonic
| x   Mute note
| b   Bend
| pb  Pre-bend
| br  Bend release
| pbr Pre-bend release
| brb Bend release bend

************************************
Suggest correction
Creating personal tab
Creating personal tab
You can edit any tab online and save it as your Personal.

You can edit, replace or remove any tab part or add personal notes – all changes will be seen only by you.

Personal tabs can be accessed anytime from any device, even offline.
Learn more »
Give kudos to tab author, rate the tab!
1 2 3 4 5
comments
print report bad tab
guest
You may want to rate the tab now too:
select rating
Wanna post a correction for this tab? Suggest correction