Oops, an error
Loading. Please wait.

Rebel Love Song Tab

version 3
version 3

Whole song

Interactive

3,511 views 9 this week
no commentswrite comment
1 2 3 4 5
please rate
add to favorites
launch autoscroll
font size
0
reset
how to read this tab
guitar tuner
Tab Pro tools
  • play this tab
  • loop segment
  • change instrument
  • show fretboard
  • metronome
×
Best way to learn
"Rebel Love Song"
Autoscroll
slow
fast
+/-
esc
set tempo
stop
Contributor
Difficulty
Tuning
intermediate
C# G# C# F# A# D#
-----------------------------------------------------------------------------
                     Rebel Love Song - Black Veil Brides
-----------------------------------------------------------------------------
Tabbed by: z0mb13_rabb1t
Tuning: Dropped C#

Some parts might not be ENTIRELY right but this is how I play it :)

KEY:
* - palm mute
x - tremolo picking
h - hammer on
p - pull off
htr - half step trill
wtr - whole step trill
v - vibrato
\ - slide down
/ - slide up

INTRO:
Guitar 1: (Listen to the song for number of strums)

|-----------------------|-Play 2x-|-----------------------------------------|
|-----------------------|---------|10/12(x8)-15(x8)-14(x8)-10(x8)-14h15-15b17
|6\4-4------------------|4--------|-----------------------------------------|
|6\4-4------------------|4--5--2--|-7/-9(x8)-12(x8)-11(x8)--7(x8)-----------|
|4\2-2-2-4-2-5-2-4-2-0-2|2--5--2--|-----------------------------------------|
|-----------------------|---5--2--|-----------------------------------------|

|------------------14p10----------------------------------------------------|
|15-14-15-14-12----------12-------------------------------------------------|
|---------------11----------11----------------------------------------------|
|------------------------------12-------------------------------------------|
|---------------------------------14-10\9-----------------------------------|
|---------------------------------------------------------------------------|

Guitar 2:

|--------------------|-Play 3x-|--------------------------------------------|
|--------------------|---------|--------------------------------------------|
|6\4-4---------------|4--------|2-------------------------------------------|
|6\4-4---------------|4--5--2--|2--5-4-00-4---------------------------------|
|4\2-2-5-7-5-9-5-4-5-|2--5--2--|0--5-4-00-4-2-2-5-2-4-2-0-2-----------------|
|--------------------|---5--2--|---5-4-00-4---------------------------------|
                                       **

VERSE: (For the most part, palm mute it. Listen to the song for reference)
Guitar 1 & 2:
                               FIRST ENDING                 SECOND ENDING
|-----------------------------|----------------------------|----------------|
|-----------------------------|----------------------------|----------------|
|-----------------------------|----------------------------|----------------|
|-----------------------------|----------------------------|----------------|
|2-2-5-2-4-2-0-2-2-5-2-4-2-0-2|-2-5-2-4-2-0---2-5-2---1-4-1|----2---2---2---|
|-----------------------------|5------------2-------4------|5-5---5---5---5-|
              TIME 2: GUITAR 2 PLAYS:       FIRST ENDING:
|------------|-----------------------------|--------------------------------|
|------------|-----------------------------|--------------------------------| 
|------------|-----------------------------|--------------------------------|
|------------|-----------------------------|------------------4-------------|
|----1---1-4-|5-5-9-5-7-5-4-5-5-9-5-7-5-4-5|--5-9-5-7-5-----2---2---4-7-4---|
|4-4---4-----|-----------------------------|5-----------5-2-------4---------|

|---------------------------------------------------------------------------|
|---------------------------------------------------------------------------|
|---------------------------------------------------------------------------|
|---------------------------------------------------------------------------|
|----5---5---5-------4---4-7------------------------------------------------|
|5-5---5---5---5-4-4---4----------------------------------------------------|

PRE-CHORUS:
Guitar 1: (Play 4x)

|-------14---12-------------------------------------------------------------|
|12p0-0----0----0-14-12-12-15-12-14-12----12--------------------------------|
|--------------------------------------14-----------------------------------|
|---------------------------------------------------------------------------|
|---------------------------------------------------------------------------|
|---------------------------------------------------------------------------|

Guitar 2: (Listen for the pattern):

|---------------------------------------------------------------------------|
|---------------------------------------------------------------------------|
|4--------------2-----------------------------------------------------------|
|4----5----2----2-----------------------------------------------------------|
|2----5----2----0-----------------------------------------------------------|
|-----5----2----------------------------------------------------------------|

CHORUS:

Guitar 1:
PLAY TWICE THEN GO TO ENDINGS               FIRST ENDING
|9---------------9----9----10----9---------|9---------------9/10-14p10------|
|--10---------10---10---10----10---10----10|--10---------10------------12---|
|-----11-9-11-------------------------11---|-----11-9-11------------------11|
|------------------------------------------|--------------------------------|
|------------------------------------------|--------------------------------|
|------------------------------------------|--------------------------------|
           SECOND ENDING
|12p9-----|9---------------9/10-14p10----------10-14p10-19p14----------14---|
|-----10--|--10---------10------------12----12----------------15----15------|
|--------9|-----11-9-11------------------11----------------------16---------|
|---------|-----------------------------------------------------------------|
|---------|-----------------------------------------------------------------|
|---------|-----------------------------------------------------------------|

|19p14-22p17----------17-19-------------------------------------------------|
|------------19----19-------------------------------------------------------|
|---------------19----------------------------------------------------------|
|---------------------------------------------------------------------------|
|---------------------------------------------------------------------------|
|---------------------------------------------------------------------------|

Guitar 2 (Listen for the pattern, as usual :3)

|---------------------------------------------------------------------------|
|---------------------------------------------------------------------------|
|0--2--4-----0--2-----4--2--------------------------------------------------|
|0--2--4--5--0--2--5--4--2--------------------------------------------------|
|0--0--2--5--0--0--5--2--0-2-2-5-2-4-2-0-2----------------------------------|
|---------5--------5--------------------------------------------------------|

Verse/Pre-Chorus/Chorus

BRIDGE:
Guitar 1 & 2:

PLAY TWICE                                     (Listen for Pattern)
|---------------------------------------------|-----------------------------|
|---------------------------------------------|-----------------------------|
|4-4-4----------------------------------------|4--7--------4--7-------------|
|4-4-4-4--------------------------------------|4--7--5--4--4--7--5--7-------|
|2-0-2---5-4h5p4-2p0-2-------2-5-----4-7-5-4--|2--5--5--4--2--5--5--7-------|
|----------------------2-4-5-----5-7---------7|------5--4--------5--7-------|

SOLO: (I'm not 100% sure on this but hopefully it gives you an idea of it)

Guitar 1:

|---------------------------------------------------------------------------|
|10h12-12-12-12----12----12/14-14-14-14----14----14/15-15-15-15/17-17-17----|
|---------------11----11----------------14----14----------------------------|
|---------------------------------------------------------------------------|
|---------------------------------------------------------------------------|
|---------------------------------------------------------------------------|

|-----------------------------------14h17p14--------------------------------|
|15h17p15-14h15p14----14---------15----------15-----------------------------|
|------------------17---17-16-14----------------14--------------------------|
|--------------------------------------------------16-------16-14-12-14-12-11
|-----------------------------------------------------17-14-----------------|
|---------------------------------------------------------------------------|

|------------14h17-19p17p14----------19-17-14-------------------------------|
|---------------------------------------------17-15-14-17-15-14-------------|
|---14h16h19----------------19p16p14----------------------------18-16-14----|
|---------------------------------------------------------------------------|
|17-------------------------------------------------------------------------|
|---------------------------------------------------------------------------|

|1514-12----------------------------14-12-10--------------------------------|
|--------15-14-12-15-14-12-------------------14-12-10-14-12-10--------------|
|--------------------------14-12-11----------------------------12-11-9------|
|---------------------------------------------------------------------------|
|---------------------------------------------------------------------------|
|---------------------------------------------------------------------------|

|-----------------------------------------------------------------10-9-9-9--|
|-----------------------------------------------------12-10-10-10-----------|
|11-9h11p9-7h9p7-6h7p6---6----------------14-12-12-12-----------------------|
|----------------------9---7-14-12-12-12------------------------------------|
|---------------------------------------------------------------------------|
|---------------------------------------------------------------------------|

|12-10-10-10-14-12-12-12-19p18p17p15h17h18h19-------------------------------|
|---------------------------------------------------------------------------|
|---------------------------------------------------------------------------|
|---------------------------------------------------------------------------|
|---------------------------------------------------------------------------|
|---------------------------------------------------------------------------|

Guitar 2: Play the intro chords. Listen to the song for reference.

Chorus

END SOLO:
Guitar 1:

|------------14p10----------------------10h14p10-19p14----------------------|
|15--14--12--------12----------------12----------------15----------------15-|
|17b-16b-14b----------11----------11----------------------16----------16----|
|------------------------12----12----------------------------16----16-------|
|---------------------------14----------------------------------17----------|
|---------------------------------------------------------------------------|

|14h19p14-17-15-14----------------------------------------------------------|
|------------------15-17----------------------------------------------------|
|---------------------------------------------------------------------------|
|---------------------------------------------------------------------------|
|---------------------------------------------------------------------------|
|---------------------------------------------------------------------------|

Guitar 2:
NOT TRIPLETS
|---------------------------------------------------------------------------|
|---------------------------------------------------------------------------|
|---------------------------------------------------------------------------|
|---------------------------------------------------------------------------|
|222-------------00-55-222---------------------222-------------00-55-222----| 
|----555-222-000-----------555-222-000-000-0-0-----555-222-000-----------555|
                                       ***

|---------------------------------------------------------------------------|
|---------------------------------------------------------------------------|
|--------2------------------------------------------------------------------|
|--------2-5-4-2-0----------------------------------------------------------|
|--------0-5-4-2-0----------------------------------------------------------|
|222-000---5-4-2-0----------------------------------------------------------|

Let me know what you guys think! :D
comments
We did not receive enough feedback on this tab! Please rate:
print report bad tab
1 2 3 4 5
I want to post or [tab]
guest
You may want to rate the tab now too:
select rating
Please do not post tabs as comments. Select "correction" instead!