Oops, an error
Loading. Please wait.

Resurrect The Sun Bass Tab

version 1
version 1

Whole song

Interactive

1,609 views 1 this week
no commentswrite comment
1 2 3 4 5
please rate
add to favorites
launch autoscroll
font size
0
reset
guitar tuner
Autoscroll
slow
fast
+/-
esc
set tempo
stop
Help us to improve Ultimate-Guitar.com Take our survey!
×
Author
Tuning
C# G# C# F# A# D#
1:03
F#|-----------------------------------------------------------------|
C#|-----------------------------------------------------------------|
G#|-1-1-1-1-1-1-1-1-----------------4-4-4-4-4-4-4-6-----------3-4---|
C#|-----------------4-4-4-4-4-4-4-4-----------------6-6-6-6-6-----6-|

F#|-----------------------------------------------------------------|
C#|-----------------------------------------------------------------|
G#|-1-1-1-1-1-1-1-----------------4-6-6-6-6-6-6-6-8-----------------|
C#|---------------6-4-4-4-4-4-4-4-------------------6-6-6-6-6-6-3-3-|

1:17
F#|-----------------------------------------------------------------|
C#|-----------------------------------------------------------------|
G#|-1-1-1-1-1-1-1-1-----------------4-4-4-4-4-4-4-6-3-3-3-3-3-4-3---|
C#|-----------------4-4-4-4-4-4-4-4-------------------------------6-|

F#|-----------------------------------------------------------------|
C#|-----------------------------------------------------------------|
G#|-1-1-1-1-1-1-1-4-----------------4-4-4-4-4-4-4-4-----------------|
C#|-----------------4-4-4-4-4-4-4-4-----------------3-------/-/-/-/-|

1:31
F#|-------------------------------------------------|
C#|-------------------------------------------------|
G#|-------------------------------------------------|
C#|-8-----8---8-8-------8---6-----6---6-6-------6---|
    1 + 2 + 3 + 4 + 5 + 6 + 1 + 2 + 3 + 4 + 5 + 6 +

F#|--------------------------------------------------|
C#|--------------------------------------------------|
G#|--------------------------------------------------|
C#|-4-----4-4-4-4-----4---4-1-----1---4-6-----6-6-10-|
    1 + 2 + 3 + 4 + 5 + 6 + 1 + 2 + 3 + 4 + 5 + 6 +

F#|-------------------------------------------------|
C#|-------------------------------------------------|
G#|-------------------------------------6-----------|
C#|-8-----8---6-8-----8---8-6-----6---6-------------|
    1 + 2 + 3 + 4 + 5 + 6 + 1 + 2 + 3 + 4 + 5 + 6 +

F#|-------------------------------------------------|
C#|-------------------------------------------------|
G#|-------4---4-----------------------------------3-|
C#|-4-------4---4-----4---4-1-----1---4-6-----6-6---|
    1 + 2 + 3 + 4 + 5 + 6 + 1 + 2 + 3 + 4 + 5 + 6 +

1:52
F#|-------------------------------------------------|
C#|-------------------------------------------------|
G#|-1-----1---3-4---3---1---------------------------|
C#|-------------------------6-----6---6-6-----6-6-6-|
    1 + 2 + 3 + 4 + 5 + 6 + 1 + 2 + 3 + 4 + 5 + 6 +

F#|-------------------------------------------------|
C#|-------------------------------------------------|
G#|-------4---------------------------------------3-|
C#|-4-----------4-----4---4-1-----1---1-6-----6-6---|
    1 + 2 + 3 + 4 + 5 + 6 + 1 + 2 + 3 + 4 + 5 + 6 +

2:02
F#|-------------------------------------------------|
C#|-------------------------------------6-----6-----|
G#|-1-----1---3-4-----4-3-1-----------6---------6---|
C#|-------------------------6-----6---------------6-|
    1 + 2 + 3 + 4 + 5 + 6 + 1 + 2 + 3 + 4 + 5 + 6 +

F#|-------------------------------------------------|
C#|-------------4-----3-----------------------------|
G#|-----------4-----------4-6-----6-----------------|
C#|-4-----4---------------------------8-6-----------|
    1 + 2 + 3 + 4 + 5 + 6 + 1 + 2 + 3 + 4 + 5 + 6 +

2:12
F#|-------------------------------------------------|
C#|-------------4---4-------------------5---5-------|
G#|-----------4-------4---------------5-------5-----|
C#|-4-----4-------------4---5-----5-------------5---|
    1 + 2 + 3 + 4 + 5 + 6 + 1 + 2 + 3 + 4 + 5 + 6 +

F#|-------------------------------------------------|
C#|-------------6---6-------------------------------|
G#|-----------6-------6-----0-0-0-0-0-0-0-0-0-0-0-0-|
C#|-6-----6-------------6-6-------------------------|
    1 + 2 + 3 + 4 + 5 + 6 + 1 + 2 + 3 + 4 + 5 + 6 +

2:22
F#|-----------------------------------------------------------------|
C#|-----------------------------------------------------------------|
G#|-1-1-1-1-1-1-1-----------------1-4-4-4-4-4-4-4-6-----------------|
C#|---------------6-4-4-4-4-4-4-4-------------------6-6-6-6-6-3-3-6-|

F#|-----------------------------------------------------------------|
C#|-----------------------------------------------------------------|
G#|-1-1-1-1-1-1-1-----------------4-6-6-6-6-6-6-6-8-----------------|
C#|---------------6-4-4-4-4-4-4-4-------------------6-6-6-6-6-6-3-3-|

2:36
F#|-----------------------------------------------------------------|
C#|-----------------------------------------------------------------|
G#|-1-1-1-1-1-3-4-3-------------8-6-4-4-4-4-4-4-4-6-3-3-3-3-3-4-3---|
C#|-----------------4-4-4-4-4-4-----------------------------------6-|

F#|-----------------------------------------------------------------|
C#|-----------------------------------------------------------------|
G#|-1-1-1-1-1-1-1-4---------------1-4-4-4-6-6-6-8-8-----------------|
C#|-----------------4-4-4-4-4-4-4-----------------------------------|

2:50
F#|-------------------------------------------------|
C#|-------------------4-----------------------------|
F#|-------------------------------------------------|
C#|-15-\--3-3-3-4--\----1-4-3-\---3-----3--4--3--1--|
    1 + 2 + 3 + 4 + 5 + 6 + 1 + 2 + 3 + 4 + 5 + 6 +

F#|-------------------------------------------------|
C#|-------------------------------------------------|
F#|-------------------------------------------------|
C#|-3--\--3-3-3-4--\--4-4-4-3-\---3-3-3-3--4--3--1--|
    1 + 2 + 3 + 4 + 5 + 6 + 1 + 2 + 3 + 4 + 5 + 6 +

3:00
F#|-------------------------------------------------|
C#|-------------------------------------------------|
G#|-1-----1---3-4---3---1---------------------------|
C#|-------------------------6-----6---6-6-----6-6-3-|
    1 + 2 + 3 + 4 + 5 + 6 + 1 + 2 + 3 + 4 + 5 + 6 +

F#|-------------------------------------------------|
C#|-------------4-----------------------------------|
G#|-------4-----------------------------------------|
C#|-4-----------------4---4-1-----1---1-6-----6-6-3-|
    1 + 2 + 3 + 4 + 5 + 6 + 1 + 2 + 3 + 4 + 5 + 6 +

3:11
F#|-------------------------------------------------|
C#|-------------------------------------6-----6-----|
G#|-1-----1---3-4-----3---1-----------6---------6---|
C#|-------------------------6-----6---------------6-|
    1 + 2 + 3 + 4 + 5 + 6 + 1 + 2 + 3 + 4 + 5 + 6 +

F#|-------------------------------------------------|
C#|-------------4-----3-----------------------------|
G#|-----------4-----------4-6-----6-----------------|
C#|-4-----4---------------------------8-6-----------|
    1 + 2 + 3 + 4 + 5 + 6 + 1 + 2 + 3 + 4 + 5 + 6 +

3:21
F#|-------------------------------------------------|
C#|-------------4-----4-----------------5-----5-----|
G#|---------------------4-----------------------5---|
C#|-4---4-4-4-4-----------4-5---5-5-5-5-----------5-|
    1 + 2 + 3 + 4 + 5 + 6 + 1 + 2 + 3 + 4 + 5 + 6 +

F#|-------------------------------------------------|
C#|-------------6---6-------------------------------|
G#|-------------------6-----0-0-0-0-0-0-------------|
C#|-6---6-6-6-6---------6-6-------------------------|
    1 + 2 + 3 + 4 + 5 + 6 + 1 + 2 + 3 + 4 + 5 + 6 +

3:32
F#|-----------------------------------------------------------------|
C#|-----------------------------------------------------------------|
G#|-1-1-1-1-1-1-1-------------------4-4-4-4-4-4-4-------------------|
C#|---------------6-4-4-4-4-4-4-4-4-----------------6-6-6-6-6-3-3-6-|

F#|-----------------------------------------------------------------|
C#|-----------------------------------------------------------------|
G#|-1-1-1-1-1-1-1-----------------4-6-6-6-6-6-6-6-8-----------------|
C#|---------------6-4-4-4-4-4-4-4-------------------6-6-6-6-6-6-6-3-|

F#|-----------------------------------------------------------------|
C#|-----------------------------------------------------------------|
G#|-1-1-1-1-1-1-1-------------------4-4-4-4-4-4-4-4-3-3-3-3-3-4-3---|
C#|---------------6-4-4-4-4-4-4-4-4-------------------------------6-|

F#|-----------------------------------------------------------------|
C#|-----------------------------------------------------------------|
G#|-1-1-1-1-1-1-1-------------------4-4-4-6-6-6-8-8-----------------|
C#|---------------6-4-4-4-4-4-4-4-4-----------------3---------------|

3:59 x4
F#|---------------------------------------------------|-----|
C#|o-3-----------4-----------3-----------------------o|-----|
F#|o-------------------------------------------------o|-----|
C#|----3-3-3-3-1---4-4-4-3-1---3-3-3-3-1-3--4--3--1---|-3---|
     1 + 2 + 3 + 4 + 5 + 6 + 1 + 2 + 3 + 4 + 5 + 6 +
Tabbed by Dave Vucko
Suggest correction
Give kudos to tab author, rate the tab!
1 2 3 4 5
comments
print report bad tab
guest
You may want to rate the tab now too:
select rating
Wanna post a correction for this tab? Suggest correction