Oops, an error
Loading. Please wait.

Savior intro tab

version 2
version 2

Intro

Whole song

Interactive

41,465 views 30 this week
6 commentsread comments
1 2 3 4 5
x 7
add to favorites
×
Save as Personal and add changes to this tab that will be seen only by you. Learn more ›
×
You can save this tab as Personal to edit and correct it or add notes. All changes will be seen only by you. Learn more »
launch autoscroll
font size
0
reset
how to read this tab
guitar tuner
edit
Autoscroll
slow
fast
+/-
esc
set tempo
stop
Song: Savior
Band: Black Veil Brides
Tabbed by: defyingthfallen
Tuning: Drop Db

i know there are actually three guitars. i'm working on getting the harmony on the intro
done and then finishing the entire song. guitar 1 is 100% correct, and i'm

pretty sure guitar 2 is at least 98% correct. tabbed by ear. this is my first tab on
here, so i hope its good|P

UPDATE 12/16/11: harmony part for the intro is done. working on the rest of the
song, and im 90% sure the harmony is correct.

UPDATE 12/20/11: got all of the timings on here. and the tempo. figured it would be
useful information. i have the verse done, and the bridge, and i'm working on the chorus.
should be done with them by the end of the week.

UPDATE 12/22/11: i was right. chorus done. reuploaded it as the whole song tho. still 
unfinished; the violin solo is getting tricky. but i added the violin part, too.

-Justyn Visibil

Q=145 BPM

   Guitar 1(acoustic)
    E E E E E E E E  E E E E E E E E  E E E E E E E E  E E E E E E E E
Eb|----------------|----------------|----------------|----------------|
Bb|--------0-------|----------------|--------0-------|----------------|
Gb|--0---0---0---0-|--0---0---0---0-|--0---0---0---0-|--0---0---0---0-|
Db|----4-------4---|----4-------4---|----4-------4---|----4-------4---|
Ab|7---------------|7-------5-------|3---------------|3-------5-------|
Db|----------------|----------------|----------------|----------------|

   Guitar 2(distorted)
    W                (W)              (W)              (W)
Eb|----------------|----------------|----------------|----------------|
Bb|----------------|----------------|----------------|----------------|
Gb|----------------|----------------|----------------|----------------|
Db|----------------|----------------|----------------|----------------|
Ab|----------------|----------------|----------------|----------------|
Db|----------------|----------------|----------------|----------------|

   Guitar 3(distorted/harmony)
    W                (W)              (W)              (W)
Eb|----------------|----------------|----------------|----------------|
Bb|----------------|----------------|----------------|----------------|
Gb|----------------|----------------|----------------|----------------|
Db|----------------|----------------|----------------|----------------|
Ab|----------------|----------------|----------------|----------------|
Db|----------------|----------------|----------------|----------------|


    E E E E E E E E  E E E E E E E E  E E E E E E E E
Eb|----------------|----------------|----------------|
Bb|--------0-------|----------------|--------0-------|
Gb|--0---0---0---0-|--0---0---0---0-|--0---0---0---0-|
Db|----4-------4---|----4-------4---|----4-------4---|
Ab|7---------------|7-------5-------|3---------------|
Db|----------------|----------------|----------------|

     H       (Q.)   E   Q.     E  Q    Q     H    (Q)     Q
Eb|------------------|--------------------|------------------|
Bb|------------------|--------------------|------------------|
Gb|-9--------------7-|-9------7--9---11---|12-----------14---|
Db|------------------|--------------------|------------------|
Ab|------------------|--------------------|------------------|
Db|------------------|--------------------|------------------|

     H       (Q.)   E   Q.     E  Q    Q     H    (Q)     Q
Eb|------------------|--------------------|------------------|
Bb|------------------|--------------------|------------------|
Gb|14-------------12-|14-----12-14---16---|17-----------19---|
Db|------------------|--------------------|------------------|
Ab|------------------|--------------------|------------------|
Db|------------------|--------------------|------------------|
 

    E E E E E E E E  E E E E E E E E  E E E E E E E E
Eb|----------------|----------------|----------------|
Bb|----------------|--------0-------|----------------|
Gb|--0---0---0---0-|--0---0---0---0-|--0---0---0---0-|
Db|----4-------4---|----4-------4---|----4-------4---|
Ab|3-------5-------|7---------------|7-------5-------|
Db|----------------|----------------|----------------|

     Q.     S  S  H         E  E  H.            H        H
Eb|----------------------|-------------------|------------------|
Bb|----------------------|-------------------|------------------|
Gb|12-----14p12p11-------|-9--7--------------|----------7-------|
Db|----------------------|-------9-----------|-7----------------|
Ab|----------------------|-------------------|------------------|
Db|----------------------|-------------------|------------------|

     Q.     S  S  H         E  E  H.            H        H
Eb|----------------------|-------------------|------------------|
Bb|----------------------|-------------------|------------------|
Gb|17-----19p17p16-------|14-12--------------|---------12-------|
Db|----------------------|------14-----------|12----------------|
Ab|----------------------|-------------------|------------------|
Db|----------------------|-------------------|------------------|
 

    E E E E E E E E  E E E E E E E E  E E E E E E E E
Eb|----------------|----------------|----------------|
Bb|--------0-------|----------------|--------0-------|
Gb|--0---0---0---0-|--0---0---0---0-|--0---0---0---0-|
Db|----4-------4---|----4-------4---|----4-------4---|
Ab|3---------------|3-------5-------|7---------------|
Db|----------------|----------------|----------------|

     H      (Q.)  E     Q.     S SS         H       (Q.)   E
Eb|------------------|-------------------|------------------|
Bb|------------------|-------------------|------------------|
Gb|------------------|-------------------|-9--------------7-|
Db|-9------------7---|-5------7p5--------|------------------|
Ab|------------------|-----------7-------|------------------|
Db|------------------|-------------------|------------------|

     H      (Q.)  E     Q.     S  S S         H       (Q.)   E
Eb|------------------|---------------------|------------------|
Bb|------------------|---------------------|------------------|
Gb|------------------|---------------------|14-------------12-|
Db|14-----------12---|10-----12p10p9-------|------------------|
Ab|------------------|---------------------|------------------|
Db|------------------|---------------------|------------------|
 

    E E E E E E E E  E E E E E E E E  E E E E E E E E
Eb|----------------|----------------|----------------|
Bb|----------------|--------0-------|--------0-------|
Gb|--0---0---0---0-|--0---0---0---0-|--0---0---0---0-|
Db|----4-------4---|----4-------4---|----4-------4---|
Ab|7-------5-------|3---------------|3-------5-------|
Db|----------------|----------------|----------------|

     Q.     E  Q    Q     H        Q    Q     Q.     S  S H
Eb|--------------------|-------------------|---------------------|
Bb|--------------------|---------17---15---|13-----15p13---------|
Gb|-9------7--9---11---|12-----------------|------------16-------|
Db|--------------------|-------------------|---------------------|
Ab|--------------------|-------------------|---------------------|
Db|--------------------|-------------------|---------------------|

     Q.     E  Q    Q     H        Q    Q     Q.     S  S H
Eb|--------------------|---------17---15---|13-----15p13---------|
Bb|--------------------|-------------------|------------17-------|
Gb|14-----12-14---16---|17-----------------|---------------------|
Db|--------------------|-------------------|---------------------|
Ab|--------------------|-------------------|---------------------|
Db|--------------------|-------------------|---------------------|
 

    E E E E E E E E  E E E E E E E E  E E E E E E E E
Eb|----------------|----------------|----------------|
Bb|--------0-------|----------------|--------0-------|
Gb|--0---0---0---0-|--0---0---0---0-|--0---0---0---0-|
Db|----4-------4---|----4-------4---|----4-------4---|
Ab|7---------------|7-------5-------|3---------------|
Db|----------------|----------------|----------------|

    E  E  H.               E  E  H.               Q    Q    Q    Q
Eb|---------------------|----------------------|--------------------|
Bb|---------------------|----------------------|--------------------|
Gb|9-11-12--------------|12-14-16--------------|16---14---12---11---|
Db|---------------------|----------------------|--------------------|
Ab|---------------------|----------------------|--------------------|
Db|---------------------|----------------------|--------------------|

    E  E  H.               E  E  H.               Q    Q    Q    Q
Eb|---------------------|----------------------|--------------------|
Bb|---------------------|----------------------|17---15---13---12---|
Gb|9---------11-12-14---|-----------14-16-17---|--------------------|
Db|---------------------|----------------------|--------------------|
Ab|---------------------|----------------------|--------------------|
Db|---------------------|----------------------|--------------------|
 

    E E E E E E E E  E E E E E E E E  E E E E E E E E
Eb|----------------|----------------|----------------|
Bb|--------0-------|--------0-------|----------------|
Gb|--0---0---0---0-|--0---0---0---0-|--0---0---0---0-|
Db|----4-------4---|----4-------4---|----4-------4---|
Ab|3-------5-------|3---------------|3-------5-------|
Db|----------------|----------------|----------------|

     Q.     S S H        W                (W)
Eb|--------------------|----------------|----------------|
Bb|--------------------|----------------|----------------|
Gb|-9-----11p9p7-------|----------------|----------------|
Db|--------------------|----------------|----------------|
Ab|--------------------|----------------|----------------|
Db|--------------------|----------------|----------------|

     Q.     S S H        W                (W)
Eb|---------------------|----------------|----------------|
Bb|10-----12p10p8-------|----------------|----------------|
Gb|---------------------|----------------|----------------|
Db|---------------------|----------------|----------------|
Ab|---------------------|----------------|----------------|
Db|---------------------|----------------|----------------|
 

    E E E E E E E E  E E E E E E E E
Eb|----------------|----------------|
Bb|--------0-------|--------0-------|
Gb|--0---0---0---0-|--0---0---0---0-|
Db|----4-------4---|----4-------4---|
Ab|7---------------|7---------------|
Db|----------------|----------------|



************************************

| p  Pull-off
| b  Bend

************************************

            
            
Suggest correction
Creating personal tab
Creating personal tab
You can edit any tab online and save it as your Personal.

You can edit, replace or remove any tab part or add personal notes – all changes will be seen only by you.

Personal tabs can be accessed anytime from any device, even offline.
Learn more »
comments
print report bad tab
6 comments total. Showing first comments.
0 reply
fallencomet 10 Aug 13, 2012 09:51 AM

Why is this in drop if we never use the E strings?

0 reply
defyingthfallen 78 Sep 07, 2012 06:12 AM

you do, its just later in the song, which i didn't tab.

0 reply
Emilybaggins 10 Sep 13, 2012 05:01 PM

Well it's a beautiful song, and a greatly tab! So thank you so much for this! I loved it! :3

guest
You may want to rate the tab now too:
select rating
Wanna post a correction for this tab? Suggest correction