Oops, an error
Loading. Please wait.

Saviour intro tab

version 2
version 2

Intro

Whole song

Interactive

7,096 views 1 this week
5 commentsread comments
1 2 3 4 5
x 5
add to favorites
×
Save as Personal and add changes to this tab that will be seen only by you. Learn more ›
×
You can save this tab as Personal to edit and correct it or add notes. All changes will be seen only by you. Learn more »
launch autoscroll
font size
0
reset
how to read this tab
guitar tuner
edit
Autoscroll
slow
fast
+/-
esc
set tempo
stop
Author
Difficulty
This is my first tab so don't expect much from me. Anyway I did my best... Hope you'll have fun!



Guitar 1(acoustic):


E|------------------------|
B|----------0-------------|
G|---0---0---0----0-------|
D|-----4--------4---------|  
A|-7----------------------|
E|------------------------|



E|------------------------|
B|----------0-------------|
G|---0---0---0----0-------|
D|-----4--------4---------|  
A|-7----------------------|
E|------------------------|



E|------------------------|
B|------------------------|
G|-----0-----0------------|
D|--------4---------------|
A|--5---------------------|
E|------------------------|



E|------------------------|
B|----------0-------------|
G|---0---0---0----0-------|
D|-----4--------4---------|  
A|-3----------------------|
E|------------------------|



E|------------------------|
B|------------------------|
G|----0---0---0----0------|
D|------4--------4--------|
A|--3-------5-------------|
E|------------------------|

-repeat this for all the intro-





Guitar 2(elecrtic):


E|------------------------------------------------------------------------|
B|----8--------8---------8---10--12-----13-12---13p12-----10---12p10------|
G|--------11-------11-----------------------------------------------------|
D|------------------------------------------------------------------------|
A|------------------------------------------------------------------------|
E|------------------------------------------------------------------------|



E|------------------------------------------------------------------------|
B|--------8\7-------5--5-----5--------------------------------------------|
G|------------------------4------5-----4-5--5p4---------------------------|
D|-----------------------------------------------------5---7p5------------|
A|------------------------------------------------------------------------|
E|------------------------------------------------------------------------|



E|------------------------------------------------------------------------|
B|----8--------8---------8---10--12-----15-13-12--------13p12-----10------|
G|--------11-------11-----------------------------------------------------|
D|------------------------------------------------------------------------|
A|------------------------------------------------------------------------|
E|------------------------------------------------------------------------|



E|------------------------------------------------------------------------|
B|--12p10-----8------8-------12-10-12-------13-12-13---------15-13-15-----|
G|---------------11-------------------------------------------------------|
D|------------------------------------------------------------------------|
A|------------------------------------------------------------------------|
E|------------------------------------------------------------------------|



E|------------------------------------------------------------------------|
B|-----15-13-12------10---8-------10p8------11----------------------------|
G|------------------------------------------------------------------------|
D|------------------------------------------------------------------------|
A|------------------------------------------------------------------------|
E|------------------------------------------------------------------------|


\ -  slide down
p -  pull off

And that was the intro from Saviour by Black Veil Brieds! Hope you like it!

            
            
Suggest correction
Creating personal tab
Creating personal tab
You can edit any tab online and save it as your Personal.

You can edit, replace or remove any tab part or add personal notes – all changes will be seen only by you.

Personal tabs can be accessed anytime from any device, even offline.
Learn more »
comments
print report bad tab
5 comments total. Showing first comments.
+4 reply
MySoulMetalhead 31 Dec 25, 2012 07:29 AM

Nice tab!But there's a few little mistakes. First, the tuning is Half Step Down.

I believe there's a little smaller last at the begining like
E|--------------------------------------------------|
B|----------0---------------------------------------|
G|---0---0---0----0-------0---0------0---0----------|
D|-----4--------4-----------4----------4------------|
A|-7-------------------7-----------5----------------|
E|--------------------------------------------------|

E|--------------------------------------------------|
B|---------0----------------------------------------|
G|---0---0---0----0--------0----0----0---0----------|
D|-----4--------4------------4---------4------------|
A|-3--------------------3----------5----------------|
E|--------------------------------------------------|

repeat and the last part of the electric guitar is

E|----------------------------------------------------------------------|
B|--12p10---8----------8---8-10-12-------10-12-13----12-13-15-----------|
G|-------------11-------------------------------------------------------|
D|----------------------------------------------------------------------|
A|----------------------------------------------------------------------|
E|----------------------------------------------------------------------|

E|----------------------------------------------------------------------|
B|-----15-13-12----10---8-------10p8------11----------------------------|
G|----------------------------------------------------------------------|
D|----------------------------------------------------------------------|
A|----------------------------------------------------------------------|
E|----------------------------------------------------------------------|

I believe if you play it like this it will be a lot better in your ear! Anyway, nice try!

0 reply
Lil Angel Briel 26 Dec 25, 2012 07:31 AM

Oh, thanks! You're right, it's that!

+1 reply
Katya.De.Roslin 10 Dec 25, 2012 07:36 AM

i think mysoulmetalhead is right.

guest
You may want to rate the tab now too:
select rating
Wanna post a correction for this tab? Suggest correction