Oops, an error
Loading. Please wait.

Shadows Die bass

version 2
version 2

Whole song

Interactive

1,166 views 1 this week
no commentswrite comment
1 2 3 4 5
1 last vote to show rating
add to favorites
×
Save as Personal and add changes to this tab that will be seen only by you. Learn more ›
×
You can save this tab as Personal to edit and correct it or add notes. All changes will be seen only by you. Learn more »
launch autoscroll
font size
0
reset
guitar tuner
edit
Autoscroll
slow
fast
+/-
esc
set tempo
stop
0:49
F#|-------------------------------------------------------------------------|
C#|-------------------------------------------------------------------------|
G#|-----------------------------1-2-1-------1-2-1---------------------------| 
C#|-1---------/-13-\--------1-4-------4-1-4-------4-0-4-6-8-6-4-0-4-6-8-6-4-|
    1   2   3   1   2   3   1 2 3 4 5 6 1 2 3 4 5 6 1 2 3 4 5 6 1 2 3 4 5 6 

F#|-------------------------------------------------|
C#|-------------------------------------------------|
G#|-------------------------------------------------|
C#|-1---/-13\---1---/-9-\---0---/-8-\---0---/-8-\---|

0:57
F#|-------------------------------------------------------------------------------------------------|
C#|-------------------------------------------------------------------4-----3-----------------------|
G#|-------------------------------------------------------------------------------5-----------------|
C#|-1-----1-1-1-1-----4-----0-----0-0-0-0-----0-0-0-1-----1-1-1-1---------------------/-8-----4-----|
    1 2 3 4 5 6 1 2 3 4 5 6 1 2 3 4 5 6 1 2 3 4 5 6 1 2 3 4 5 6 1 2 3 4 5 6 1 2 3 4 5 6 1 2 3 4 5 6 

1:04
F#|-------------------------------------------------------------------------------------------------|
C#|-------------------------------------------------------------------------------------------------|
G#|-------------------------------------------------2---2-2---2-2---2-2---2-1---1-1---1-1-2-1-------|
C#|-1-----1-1-1-1-----4-----0-----0-0-0-0-----0-0-0-------------------------------------------6-4-3-|
    1 2 3 4 5 6 1 2 3 4 5 6 1 2 3 4 5 6 1 2 3 4 5 6 1 2 3 4 5 6 1 2 3 4 5 6 1 2 3 4 5 6 1 2 3 4 5 6 

F#|-------------------------------------------------------------------------------------------------|
C#|-------------------------------------------------------------------4-----3-----------------------|
G#|-------------------------------------------------------------------------------5-----------------|
C#|-1-----1-1-1-1-----4-----0-----0-0-0-0-----0-0-0-1-----1-1-1-1---------------------/-8-----4-----|
    1 2 3 4 5 6 1 2 3 4 5 6 1 2 3 4 5 6 1 2 3 4 5 6 1 2 3 4 5 6 1 2 3 4 5 6 1 2 3 4 5 6 1 2 3 4 5 6 

F#|-------------------------------------------------------------------------------------------------|
C#|-------------------------------------------------------------------------------------------------|
G#|-------------------------------------------------2---2-2---2-2---2-2---2-1---1-1---1-------------|
C#|-1-----1-1-1-1-----4-----0-----0-0-0-0-----0-0-0-------------------------------------1---/-13-\--|
    1 2 3 4 5 6 1 2 3 4 5 6 1 2 3 4 5 6 1 2 3 4 5 6 1 2 3 4 5 6 1 2 3 4 5 6 1 2 3 4 5 6 1 2 3 4 5 6 

1:23
F#|-------------------------------------------------|
C#|-------------------------------------------------|
G#|-----1-2-1---------------------------------------|
C#|-1-4-------4-0-4-6-8-6-4-0-3-4-6-4-3-0-4-6-8-6-4-|

F#|-------------------------------------------------|
C#|-------------------------------------------------|
G#|-------------------------------------------------|
C#|-1---/-13\---1---/-9-\---0---/-8-\---0---/-8-\---|

1:30
F#|-------------------------------------------------------------------------------------------------|
C#|-------------------------------------------------------------------------------------------------|
G#|-------------------------2-----2-2-2-2-2-2-2-2-2-------------------------1-----1-1-1-1-2-1-------|
C#|-1-----1-1-1-1-----1-1-1-------------------------4-----4-4-4-4-----4-4-4-------------------6-4-3-|
    1 2 3 4 5 6 1 2 3 4 5 6 1 2 3 4 5 6 1 2 3 4 5 6 1 2 3 4 5 6 1 2 3 4 5 6 1 2 3 4 5 6 1 2 3 4 5 6 

F#|-------------------------------------------------------------------------------------------------|
C#|-------------------------------------------------------------------------------------------------|
G#|-------------------------2-----2-2-2-2-2-2-2-2-2-------------------------------------------------|
C#|-1-----1-1-1-1-----1-1-1-------------------------4-----4-4-4-4-----4-4-4-0-----0-0-0-3-----3-----|
    1 2 3 4 5 6 1 2 3 4 5 6 1 2 3 4 5 6 1 2 3 4 5 6 1 2 3 4 5 6 1 2 3 4 5 6 1 2 3 4 5 6 1 2 3 4 5 6 

1:43
F#|-------------------------------------------------------------------------------------------------|
C#|-------------------------------------------------------------------------------------------------|
G#|-------------------------2-2-2-2-2-2-2-2-2-2-2-2-------------------------1-1-1-1-1-1-1-2-1-------|
C#|-1-1-1-1-1-1-1-1-1-1-1-1-------------------------4-4-4-4-4-4-4-4-4-4-4-4-------------------6-4-3-|
    1 2 3 4 5 6 1 2 3 4 5 6 1 2 3 4 5 6 1 2 3 4 5 6 1 2 3 4 5 6 1 2 3 4 5 6 1 2 3 4 5 6 1 2 3 4 5 6 

F#|-------------------------------------------------------------------------------------------------|
C#|-------------------------------------------------------------------------------------------------|
G#|-------------------------2-----2-2-2-2-2-2-2-2-2-------------------------------------------------|
C#|-1-----1-1-1-1-----1-1-1-------------------------4-----4-4-4-4-----4-4-4-0-----0-0-0-3-----4-----|
    1 2 3 4 5 6 1 2 3 4 5 6 1 2 3 4 5 6 1 2 3 4 5 6 1 2 3 4 5 6 1 2 3 4 5 6 1 2 3 4 5 6 1 2 3 4 5 6 

1:56
F#|-------------------------------------------------------------------------------------------------|
C#|-------------------------------------------------------------------------------------------------|
G#|-------------------------------------1-----------------------------------------------------------|
C#|-1-----1-1-1-1-----1-1-1-1-----1-1-1-------4-----1-----1-1-1-1-----1-1-1-1-----1-1-1-1-/-/-/-/-/-|
    1 2 3 4 5 6 1 2 3 4 5 6 1 2 3 4 5 6 1 2 3 4 5 6 1 2 3 4 5 6 1 2 3 4 5 6 1 2 3 4 5 6 1 2 3 4 5 6 

2:03
F#|-------------------------------------------------------------------------------------------------|
C#|-------------------------------------------------------------------------------------------------|
G#|-------------------------------------------------------------------------------------------------|
C#|-13-\-\-\-\--------------------------------------------------------------------------------------|
    1 2 3 4 5 6 1 2 3 4 5 6 1 2 3 4 5 6 1 2 3 4 5 6 1 2 3 4 5 6 1 2 3 4 5 6 1 2 3 4 5 6 1 2 3 4 5 6 

2:09
F#|-------------------------------------------------------------------------------------------------|
C#|-------------------------------------------------------------------------------------------------|
G#|-------------------------------------------------2-----2-----2-----2-----1-----------------------|
C#|-1-----1-1-1-1-----4-----0-----0-----0-----0--------------4-----4--------------------------------|
    1 2 3 4 5 6 1 2 3 4 5 6 1 2 3 4 5 6 1 2 3 4 5 6 1 2 3 4 5 6 1 2 3 4 5 6 1 2 3 4 5 6 1 2 3 4 5 6 

2:17
F#|-------------------------------------------------------------------------------------------------|
C#|-------------------------------------------------------------------4-----3-----------------------|
G#|-------------------------------------------------------------------------------5-----------------|
C#|-1-----1-1-1-1-----4-----0-----0-0-0-0-----0-0-0-1-----1-1-1-1---------------------/-8-----4-----|
    1 2 3 4 5 6 1 2 3 4 5 6 1 2 3 4 5 6 1 2 3 4 5 6 1 2 3 4 5 6 1 2 3 4 5 6 1 2 3 4 5 6 1 2 3 4 5 6 

F#|-------------------------------------------------------------------------------------------------|
C#|-------------------------------------------------------------------------------------------------|
G#|-------------------------------------------------2---2-2---2-2---2-2---2-1---1-1---1-1-2-1-------|
C#|-1-----1-1-1-1-----4-----0-----0-0-0-0-----0-0-0-------------------------------------------6-4-3-|
    1 2 3 4 5 6 1 2 3 4 5 6 1 2 3 4 5 6 1 2 3 4 5 6 1 2 3 4 5 6 1 2 3 4 5 6 1 2 3 4 5 6 1 2 3 4 5 6 

F#|-------------------------------------------------|
C#|-------------------------------------------------|
G#|-----1-2-1---------------------------------------|
C#|-1-4-------4-0-4-6-8-6-4-0-3-4-6-4-3-0-4-6-8-6-4-|

F#|-------------------------------------------------|
C#|-------------------------------------------------|
G#|-------------------------------------------------|
C#|-1---/-13\---1---/-9-\---0---/-8-\---0---/-8-\---|

2:36
F#|-------------------------------------------------------------------------------------------------|
C#|-------------------------------------------------------------------------------------------------|
G#|-------------------------2-----2-2-2-2-2-2-2-2-2-------------------------1-----1-1-1-1-2-1-------|
C#|-1-----1-1-1-1-----1-1-1-------------------------4-----4-4-4-4-----4-4-4-------------------6-4-3-|
    1 2 3 4 5 6 1 2 3 4 5 6 1 2 3 4 5 6 1 2 3 4 5 6 1 2 3 4 5 6 1 2 3 4 5 6 1 2 3 4 5 6 1 2 3 4 5 6 

F#|-------------------------------------------------------------------------------------------------|
C#|-------------------------------------------------------------------------------------------------|
G#|-------------------------2-----2-2-2-2-2-2-2-2-2-------------------------------------------------|
C#|-1-----1-1-1-1-----1-1-1-------------------------4-----4-4-4-4-----4-4-4-0-----0-0-0-3-----3-----|
    1 2 3 4 5 6 1 2 3 4 5 6 1 2 3 4 5 6 1 2 3 4 5 6 1 2 3 4 5 6 1 2 3 4 5 6 1 2 3 4 5 6 1 2 3 4 5 6 

F#|-------------------------------------------------------------------------------------------------|
C#|-------------------------------------------------------------------------------------------------|
G#|-------------------------2-2-2-2-2-2-2-2-2-2-2-2-------------------------1-1-1-1-1-1-1-2-1-------|
C#|-1-1-1-1-1-1-1-1-1-1-1-1-------------------------4-4-4-4-4-4-4-4-4-4-4-4-------------------6-4-3-|
    1 2 3 4 5 6 1 2 3 4 5 6 1 2 3 4 5 6 1 2 3 4 5 6 1 2 3 4 5 6 1 2 3 4 5 6 1 2 3 4 5 6 1 2 3 4 5 6 

F#|-------------------------------------------------------------------------------------------------|
C#|-------------------------------------------------------------------------------------------------|
G#|-------------------------2-----2-2-2-2-2-2-2-2-2-------------------------------------------------|
C#|-1-----1-1-1-1-----1-1-1-------------------------4-----4-4-4-4-----4-4-4-0-----0-0-0-3-----4-----|
    1 2 3 4 5 6 1 2 3 4 5 6 1 2 3 4 5 6 1 2 3 4 5 6 1 2 3 4 5 6 1 2 3 4 5 6 1 2 3 4 5 6 1 2 3 4 5 6 

3:03
F#|------------------------------------------------------------------|
C#|o-----------------------------------------------------------------|
G#|o---------1-1-6-6-555-111-----------------1-1-6-6-555-111---------|
C#|--1-1-4-4-----------------444-333-1-1-4-4-----------------444-333-|
     1 + 2 + 3 + 4 + 1 + 2 + 3 + 4 + 1 + 2 + 3 + 4 + 1 + 2 + 3 + 4 +

F#|------------------------------------------------------------------|--------------|
C#|-----------------------------------------------------------------o|--------------|
G#|---------1-1-6-6-555-111---------2-------2--4--2--1--------------o|--------------|
C#|-1-1-4-4-----------------444-333-------4-----------------4---3----|-1~~~~~~~~~~~-|
     1 + 2 + 3 + 4 + 1 + 2 + 3 + 4 + 1 + 2 + 3 + 4 + 1 + 2 + 3 + 4 +

3:39
F#|-------------------------------------------------------------------------------------------------|
C#|-------------------------------------------------------------------------------------------------|
F#|-------------------------------------5p4h5-4p2h4-6p5h6-------2p1h2---2---1-----------2p1h2-------|
C#|-1-----------4-------4---6-----------------------------------------------------------------8p6h8-|
    1 2 3 4 5 6 1 2 3 4 5 6 1 2 3 4 5 6 1 2 3 4 5 6 1 2 3 4 5 6 1 2 3 4 5 6 1 2 3 4 5 6 1 2 3 4 5 6 

F#|-----------------------------------------------------------------------------------------7---8---|
C#|-------------------------------------------------------------------------------------------------|
F#|-------------------------------------5p4h5-4p2h4-6p5h6---4---2p1h2---2---1-----------2-----------|
C#|-1-------1---4-------4---6-------6---------------------------------------------------------------|
    1 2 3 4 5 6 1 2 3 4 5 6 1 2 3 4 5 6 1 2 3 4 5 6 1 2 3 4 5 6 1 2 3 4 5 6 1 2 3 4 5 6 1 2 3 4 5 6 

3:59
F#|-------------------------------------------------------------------------------------------------|
C#|-------------6-------------------4---3---7-------------------------------------------------------|
F#|-2-------2-------1---2---1---6-------------------------------------------------------1-2-1-2-1-2-|
C#|--------------------------------------------/13\-1-------1---4-------4---0-------0---------------|
    1 2 3 4 5 6 1 2 3 4 5 6 1 2 3 4 5 6 1 2 3 4 5 6 1 2 3 4 5 6 1 2 3 4 5 6 1 2 3 4 5 6 1 2 3 4 5 6 

4:09
F#|-------------------------------------------------------------------------------------------------|
C#|-------------------------------------------------------------------------------------------------|
G#|-------------------------------------1-2-1-2-1-2-------------------------------------1-2-1-2-1-2-|
C#|-1-------1---4-------4---0-------0---------------1-111-1-1-1-4-444-4-4-4-0-000-0-0-0-------------|

F#|-----------------------------------------------------------------------------------------|
C#|-----------------------------------------------------------------------------------------|
G#|-------------------------------------1-2-1-2-1-2-555-555-555-------------2-2-2-4-6-4-6-8-|
C#|-1-111-1-1-1-4-444-4-4-4-0-000-0-0-0-------------------------1-1-3-3-4-4-----------------|

4:28
F#|-------------------------------------------------------------------------------------------------|
C#|-------------------------------------------------------------------------------------------------|
G#|-------------------------2-----2-2-2-2-2-2-2-2-2-------------------------1-----1-1-1-1-2-1-------|
C#|-1-----1-1-1-1-----1-1-1-------------------------4-----4-4-4-4-----4-4-4-------------------6-4-3-|
    1 2 3 4 5 6 1 2 3 4 5 6 1 2 3 4 5 6 1 2 3 4 5 6 1 2 3 4 5 6 1 2 3 4 5 6 1 2 3 4 5 6 1 2 3 4 5 6 

F#|-------------------------------------------------------------------------------------------------|
C#|-------------------------------------------------------------------------------------------------|
G#|-------------------------2-----2-2-2-2-2-2-2-2-2-------------------------------------------------|
C#|-1-----1-1-1-1-----1-1-1-------------------------4-----4-4-4-4-----4-4-4-0-----0-0-0-3-----3-----|
    1 2 3 4 5 6 1 2 3 4 5 6 1 2 3 4 5 6 1 2 3 4 5 6 1 2 3 4 5 6 1 2 3 4 5 6 1 2 3 4 5 6 1 2 3 4 5 6 

F#|-------------------------------------------------------------------------------------------------|
C#|-------------------------------------------------------------------------------------------------|
G#|-------------------------2-2-2-2-2-2-2-2-2-2-2-2-------------------------1-1-1-1-1-1-1-2-1-------|
C#|-1-1-1-1-1-1-1-1-1-1-1-1-------------------------4-4-4-4-4-4-4-4-4-4-4-4-------------------6-4-3-|
    1 2 3 4 5 6 1 2 3 4 5 6 1 2 3 4 5 6 1 2 3 4 5 6 1 2 3 4 5 6 1 2 3 4 5 6 1 2 3 4 5 6 1 2 3 4 5 6 

F#|-------------------------------------------------------------------------------------------------|
C#|-------------------------------------------------------------------------------------------------|
G#|-------------------------2-2-2-2-2-2-2-2-2-2-2-2-------------------------------------------------|
C#|-1-1-1-1-1-1-1-1-1-1-1-1-------------------------4-4-4-4-4-4-4-4-4-4-4-4-0-0-0-0-0-0-3-3-3-4-4-4-|
    1 2 3 4 5 6 1 2 3 4 5 6 1 2 3 4 5 6 1 2 3 4 5 6 1 2 3 4 5 6 1 2 3 4 5 6 1 2 3 4 5 6 1 2 3 4 5 6 

4:54
F#|---------------------------------------------------------------------------------------------------|
C#|o-------------------------------------------------------------------------------------------------o|
G#|o-------------------------------------------------------------------------------------------------o|
C#|--1---1---1---1---1---1---4---4---4---4---4---4---0---0---0---0---0---0---8---9---8---9---8---9----|
Tabbed by Dave Vucko
Suggest correction
Creating personal tab
Creating personal tab
You can edit any tab online and save it as your Personal.

You can edit, replace or remove any tab part or add personal notes – all changes will be seen only by you.

Personal tabs can be accessed anytime from any device, even offline.
Learn more »
Give kudos to tab author, rate the tab!
1 2 3 4 5
comments
print report bad tab
guest
You may want to rate the tab now too:
select rating
Wanna post a correction for this tab? Suggest correction