Oops, an error
Loading. Please wait.

Smoke And Mirrors bass

version 1
version 1

Whole song

Interactive

610 views 1 this week
no commentswrite comment
1 2 3 4 5
2 more votes to show rating
add to favorites
×
Save as Personal and add changes to this tab that will be seen only by you. Learn more ›
×
You can save this tab as Personal to edit and correct it or add notes. All changes will be seen only by you. Learn more »
launch autoscroll
font size
0
reset
guitar tuner
edit
Autoscroll
slow
fast
+/-
esc
set tempo
stop
0:05
F#|-----------------------------------------------------------------|
C#|-----------------------------------------------------------------|
G#|-----------------------------------------------------------------|
C#|-2-0-2---0-2---0-2-0-2---0-2---0-2-0-2---0-2---0-2-5-5-5-5-7-7-7-|
    1 + 2 + 3 + 4 + 1 + 2 + 3 + 4 + 1 + 2 + 3 + 4 + 1 + 2 + 3 + 4 +

F#|-----------------------------------------------------------------|
C#|-----------------------------------------------------------------|
G#|-------------------------------------------------------0-5-0---0-|
C#|-2-0-2---0-2---0-2-0-2---0-2---0-2-0-2---0-2---0-2-5-5-------5---|
    1 + 2 + 3 + 4 + 1 + 2 + 3 + 4 + 1 + 2 + 3 + 4 + 1 + 2 + 3 + 4 +

F#|-----------------------------------------------------------------|
C#|-----------------------------------------------------------------|
G#|-----------------------------------------------------------------|
C#|-2-0-2---0-2---0-2-0-2---0-2---0-2-0-2---0-2---0-2-5-5-5-5-7-7-7-|
    1 + 2 + 3 + 4 + 1 + 2 + 3 + 4 + 1 + 2 + 3 + 4 + 1 + 2 + 3 + 4 +

F#|-----------------------------------------------------------------|
C#|-----------------------------------------------------------------|
G#|-------------------------------------------------------0-5-0---0-|
C#|-2-0-2---0-2---0-2-0-2---0-2---0-2-0-2---0-2---0-2-5-5-------5---|
    1 + 2 + 3 + 4 + 1 + 2 + 3 + 4 + 1 + 2 + 3 + 4 + 1 + 2 + 3 + 4 +

0:28
F#|-----------------------------------------------------------------|
C#|-----------------------------------------------------------------|
G#|-----------------------------------------------------------------|
C#|-2-0-2-------------------------0-2-0-2---------2-0-------------0-|
    1 + 2 + 3 + 4 + 1 + 2 + 3 + 4 + 1 + 2 + 3 + 4 + 1 + 2 + 3 + 4 +

F#|-----------------------------------------------------------------|
C#|-----------------------------------------------------------------|
G#|-----------------------------------------------------------------|
C#|-2-0-2-------------------------0-2-0-2---------2-0---------------|
    1 + 2 + 3 + 4 + 1 + 2 + 3 + 4 + 1 + 2 + 3 + 4 + 1 + 2 + 3 + 4 +

0:39
F#|-----------------------------------------------------------------|
C#|-----------------------------------------------------------------|
G#|-----------------------------------------------------------------|
C#|-2-2---2-2---2-2-----------------2-0-2---2-0-2-5---5-5-7---7-7-7-|
    1 + 2 + 3 + 4 + 1 + 2 + 3 + 4 + 1 + 2 + 3 + 4 + 1 + 2 + 3 + 4 +

F#|-----------------------------------------------------------------|
C#|-----------------------------------------------------------------|
G#|-----------------------------------------------------------------|
C#|-2-2---2-2---2-2-----------------2-0-2---2-2-2-5---5-5-7-7-7-7-7-|
    1 + 2 + 3 + 4 + 1 + 2 + 3 + 4 + 1 + 2 + 3 + 4 + 1 + 2 + 3 + 4 +

0:50
F#|-----------------------------------------------------------------|
C#|-----------------------------------------------------------------|
G#|-3-3-3-3-3-3-3-3-3-3-3-3-3-3-3---2-2-2-2-2-2-2-2-----------------|
C#|-------------------------------------------------5-5-5-5-0-0-0-0-|
    1 + 2 + 3 + 4 + 1 + 2 + 3 + 4 + 1 + 2 + 3 + 4 + 1 + 2 + 3 + 4 +

F#|-------------------------------------------------------------------|
C#|o-----------------------------------------------------------------o|
G#|o-3-3-3-3-3-3-3-3-3-3-3-3-3-3-3---2-2-2-2-2---2-------------------o| x3
C#|--------------------------------------------------5---5---0---0----|
     1 + 2 + 3 + 4 + 1 + 2 + 3 + 4 + 1 + 2 + 3 + 4 + 1 + 2 + 3 + 4 +

1:13
F#|-----------------------------------------------------------------|
C#|-----------------------------------------------------------------|
G#|-----------0-2-------------------3-3-3-3-3-3-3-3-----------------|
C#|-2-0-2---5-----5---5-5-5-5-5-5-5-----------------0-0-0-0-0-0-0-0-|
    1 + 2 + 3 + 4 + 1 + 2 + 3 + 4 + 1 + 2 + 3 + 4 + 1 + 2 + 3 + 4 +

1:19
F#|-----------------------------------------------------------------|
C#|-----------------------------------------------------------------|
G#|-----------------------------------------------------------------|
C#|-2-0-2-------------------------0-2-0-2---------2-0---0---0---0-0-|
    1 + 2 + 3 + 4 + 1 + 2 + 3 + 4 + 1 + 2 + 3 + 4 + 1 + 2 + 3 + 4 +

F#|-----------------------------------------------------------------|
C#|-----------------------------------------------------------------|
G#|-----------------------------------------------------------------|
C#|-2-0-2-------------------------0-2-0-2---------2-0---0---0---0---|
    1 + 2 + 3 + 4 + 1 + 2 + 3 + 4 + 1 + 2 + 3 + 4 + 1 + 2 + 3 + 4 +

1:30
F#|-----------------------------------------------------------------|
C#|-----------------------------------------------------------------|
G#|-----------------------------------------------------------------|
C#|-2-2---2-2---2-2-----------------2-0-2---2-0-2-5---5-5-7---7-7-7-|
    1 + 2 + 3 + 4 + 1 + 2 + 3 + 4 + 1 + 2 + 3 + 4 + 1 + 2 + 3 + 4 +

F#|-----------------------------------------------------------------|
C#|-----------------------------------------------------------------|
G#|-----------------------------------------------------------------|
C#|-2-2---2-2---2-2-----------------2-0-2---2-2-2-5---5-5-7-7-7-7-7-|
    1 + 2 + 3 + 4 + 1 + 2 + 3 + 4 + 1 + 2 + 3 + 4 + 1 + 2 + 3 + 4 +

1:41
F#|-----------------------------------------------------------------|
C#|-----------------------------------------------------------------|
G#|-3-3-3-3-3-3-3-3-3-3-3-3-3-3-3---2-2-2-2-2-2-2-2-----------------|
C#|-------------------------------------------------5-5-5-5-0-0-0-0-|
    1 + 2 + 3 + 4 + 1 + 2 + 3 + 4 + 1 + 2 + 3 + 4 + 1 + 2 + 3 + 4 +

F#|-----------------------------------------------------------------|
C#|-----------------------------------------------------------------|
G#|-3-3-3-3-3-3-3-3-3-3-3-3-3-3-3---2-2-2-2-2-2-2-2-----------------|
C#|-------------------------------------------------5---5---0---0---|
    1 + 2 + 3 + 4 + 1 + 2 + 3 + 4 + 1 + 2 + 3 + 4 + 1 + 2 + 3 + 4 +

F#|-----------------------------------------------------------------|
C#|-----------------------------------------------------------------|
G#|-3-3-3-3-3-3-3-3-3-3-3-3-3-3-3---2-2-2-2-2-2-2-2-----------------|
C#|-------------------------------------------------5-5-5-5-0-0-0-0-|
    1 + 2 + 3 + 4 + 1 + 2 + 3 + 4 + 1 + 2 + 3 + 4 + 1 + 2 + 3 + 4 +

F#|-----------------------------------------------------------------|
C#|-----------------------------------------------------------------|
G#|-3-3-3-3-3-3-3-3-3-3-3-3-3-3-3---2-2-2-2-2---2-------------------|
C#|-------------------------------------------------5---5---0---0---|
    1 + 2 + 3 + 4 + 1 + 2 + 3 + 4 + 1 + 2 + 3 + 4 + 1 + 2 + 3 + 4 +

2:04
F#|-----------------------------------------------------------------|
C#|-----------------------------------------------------------------|
G#|-3-3-3-3-3-3-3-3-3-3-3-3-3-3-3---2-2-2-2-2-2-2---2-2-2-2-2-2-2-2-|
C#|-----------------------------------------------------------------|
    1 + 2 + 3 + 4 + 1 + 2 + 3 + 4 + 1 + 2 + 3 + 4 + 1 + 2 + 3 + 4 +

F#|-----------------------------------------------------------------|
C#|-----------------------------------------------------------------|
G#|-3-3-3-3-3-3-3-3-3-3-3-3-3-3-3-3-2-2-2-2-2-2-2-2-5-5-5-5-5-5-5-5-|
C#|-----------------------------------------------------------------|
    1 + 2 + 3 + 4 + 1 + 2 + 3 + 4 + 1 + 2 + 3 + 4 + 1 + 2 + 3 + 4 +

2:15
F#|---------------------------------|
C#|---------------------------------|
G#|---------------------------------|
C#|-2-2---2-4-4---4-5-5---5-7-7-----|
    1 + 2 + 3 + 4 + 1 + 2 + 3 + 4 + 

F#|-----------------------------------------------------------------|
C#|-----------------------------------------------------------------|
G#|-3-3-3-3-3-3-3-3-3-3-3-3-3-3-3-3-5-5-5-5-5-5-5-5-5-5-5-5-5-5-5-5-|
C#|-----------------------------------------------------------------|
    1 + 2 + 3 + 4 + 1 + 2 + 3 + 4 + 1 + 2 + 3 + 4 + 1 + 2 + 3 + 4 +

F#|-----------------------------------------------------------------|
C#|-----------------------------------------------------------------|
G#|-7-7-7-7-7-7-7-7-7-7-7-7-7-7-7-7-3-3-3-3-3-3-3-3-3-3-3-3-3-3-3-3-|
C#|-----------------------------------------------------------------|
    1 + 2 + 3 + 4 + 1 + 2 + 3 + 4 + 1 + 2 + 3 + 4 + 1 + 2 + 3 + 4 +

2:29
F#|-----------------------------------------------------------------|
C#|-----------------------------------------------------------------|
G#|-------5-------------------------------5-------------------------|
C#|-5-----------3-------3-3-3-0-2-3-5-----------3-------3-3-3-0-2-3-|
    1 + 2 + 3 + 4 + 1 + 2 + 3 + 4 + 1 + 2 + 3 + 4 + 1 + 2 + 3 + 4 +

2:35
F#|------------------------------------------------------------------|
C#|o-----------------------------------------------------------------|
G#|o-----------------------------------------------------------------|
C#|--5-5-5-5-5-5-5-5-5-5-5-5-5-5-5-5-3-3-3-3-3-3-3-3-3-3-3-3-3-3-3-3-|
     1 + 2 + 3 + 4 + 1 + 2 + 3 + 4 + 1 + 2 + 3 + 4 + 1 + 2 + 3 + 4 +
 
F#|------------------------------------------------------------------|
C#|-----------------------------------------------------------------o|
G#|-----------------------------------------------------------------o|
C#|-2-2-2-2-2-2-2-2-2-2-2-2-2-2-2-2-0-0-0-0-0-0-0-0-0-0-0-0-0-0-0-0--|
    1 + 2 + 3 + 4 + 1 + 2 + 3 + 4 + 1 + 2 + 3 + 4 + 1 + 2 + 3 + 4 +

2:57
F#|---------------------------------|
C#|---------------------------------|
G#|-------------0-0-0-2-2-2-3-5-5-5-|
C#|-2-2-2-5-5-5---------------------|
    1 + 2 + 3 + 4 + 1 + 2 + 3 + 4 + 

3:01
F#|-----------------------------------------------------------------|
C#|-----------------------------------------------------------------|
G#|-3-3-3-3-3-3-3-3-3-3-3-3-3-3-3---2-2-2-2-2-2-2-2-----------------|
C#|-------------------------------------------------5-5-5-5-0-0-0-0-|
    1 + 2 + 3 + 4 + 1 + 2 + 3 + 4 + 1 + 2 + 3 + 4 + 1 + 2 + 3 + 4 +

F#|-------------------------------------------------------------------|
C#|o-----------------------------------------------------------------o|
G#|o-3-3-3-3-3-3-3-3-3-3-3-3-3-3-3---2-2-2-2-2-2-2-2-----------------o| x3
C#|---------------------------------------------- ---5---5---0---0----|
     1 + 2 + 3 + 4 + 1 + 2 + 3 + 4 + 1 + 2 + 3 + 4 + 1 + 2 + 3 + 4 +

3:22
F#|-----------------------------------------------------------------|
C#|-----------------------------------------------------------------|
G#|-3-3-3-3-3-3-3-3-3-3-3-3-3-3-3---2-2-2-2-2-2-2---2-2-2-2-2-2-2-2-|
C#|-----------------------------------------------------------------|
    1 + 2 + 3 + 4 + 1 + 2 + 3 + 4 + 1 + 2 + 3 + 4 + 1 + 2 + 3 + 4 +

F#|-----------------------------------------------------------------|
C#|-----------------------------------------------------------------|
G#|-3-3-3-3-3-3-3-3-3-3-3-3-3-3-3-3-2-2-2-2-2-2-2-2-5-5-5-5-5-5-5-5-|
C#|-----------------------------------------------------------------|
    1 + 2 + 3 + 4 + 1 + 2 + 3 + 4 + 1 + 2 + 3 + 4 + 1 + 2 + 3 + 4 +

3:34
F#|---------------------------------------------------------------------------------|
C#|---------------------------------------------------------------------------------|
G#|-------------------------------0---0-0-0-3-2-0-3-2-------------------------------|
C#|-2-0-2---2-222-4---4-4-5---5-5-------------------------------------2-5-0-2-------|
    1 + 2 + 3 + 4 + 1 + 2 + 3 + 4 + 1 + 2 + 3 + 4 + 1 + 2 + 3 + 4 + 1 + 2 + 3 + 4 +

Tabbed by Dave Vucko

            
            
Suggest correction
Creating personal tab
Creating personal tab
You can edit any tab online and save it as your Personal.

You can edit, replace or remove any tab part or add personal notes – all changes will be seen only by you.

Personal tabs can be accessed anytime from any device, even offline.
Learn more »
Give kudos to tab author, rate the tab!
1 2 3 4 5
comments
print report bad tab
guest
You may want to rate the tab now too:
select rating
Wanna post a correction for this tab? Suggest correction