Oops, an error
Loading. Please wait.

The Legacy Bass Tab

version 1
version 1

Whole song

Interactive

33,717 views 9 this week
no commentswrite comment
1 2 3 4 5
x 4
add to favorites
launch autoscroll
font size
0
reset
guitar tuner
Autoscroll
slow
fast
+/-
esc
set tempo
stop
Help us to improve Ultimate-Guitar.com Take our survey!
×
Author
Difficulty
Tuning
intermediate
C# G# C# F# A# D#
The Legacy 

Tuning: (C# G# C# F#)

Intro:

F# |---------------------------------------------------------|
C# |---------------------------------------------------------|
G# |---------------------------------------------------------|
C# |--2p0-2p0-2h5p2-00--5h8p7h8-2p0-2p0-2h5p2-2h5p2-88888888-|
x2

F# |----------------------------------------------------------------|
C# |----------------------------------------------------------------|
G# |----------------------------------------------------------------|
C# | 2p0-2p0-2h5p2-00--5h8p7h8-2p0-2p0-2h5p2-2h5p2-000-000-000-12|0-|

Last time do this part : 

F# |------------------------------------------------------------------------|
C# |------------------------------------------------------------------------|
G# |------------------------------------------------------------------------|
C# |2p0-2p0-2h5p2-00--5h8p7h8-2p0-2p0-2h5p2-2h5p2-88888888-101010101010-12|0|


Verse 1:

F# |-------------------------------------------------|
C# |-------------------------------------------------|
G# |------------3h5p0----------5h7p0----------3h5p0--| x3
C# |--00000------------00000----------00000----------|

After palying the verse 3 times end it with this

F# |------------------------------|
C# |------------------------------|
G# |------------------------------| 
C# |-999999-888888-777777-5555555-|

Verse 1:
F# |-------------------------------------------------|
C# |-------------------------------------------------|
G# |------------3h5p0----------5h7p0----------3h5p0--| x3
C# |--00000------------00000----------00000----------|

After palying the verse 3 times end it with this

F# |-------------------------------------------------------|
C# |-------------------------------------------------------|
G# |-------------------------------------------------------|
C# |-999999-888888-777777-5555555-888888888-10101010101010-|


Chorus:

F# |----------------------------------------------------|
C# |----------------------------------------------------|
G# |----------------------------------------------------|x2
C# |-0000000-33333333333-555555555555-88888888-10101010-|

Verse 2:

F# |------------------------------------------------------------------------|
C# |------------------------------------------------------------------------|
G# |--------------------1p0-1p0-1p0-------2h3p2-0000-5|---------1p0-1p0-1p0-|
C# |-1p0-1p0------1p0-1p0-----------1p0-1p0------------1p0-1p0--------------|

Verse 1:

F# |-------------------------------------------------|
C# |-------------------------------------------------|
G# |------------3h5p0----------5h7p0----------3h5p0--| x3
C# |--00000------------00000----------00000----------|

After palying the verse 3 times end it with this

F# |------------------------------|
C# |------------------------------|
G# |------------------------------|
C# |-999999-888888-777777-5555555-|

Verse 1:

F# |-------------------------------------------------|
C# |-------------------------------------------------|
G# |------------3h5p0----------5h7p0----------3h5p0--| x3
C# |--00000------------00000----------00000----------|

After palying the verse 3 times end it with this

F# |-------------------------------------------------------|
C# |-------------------------------------------------------|
G# |-------------------------------------------------------|
C# |-999999-888888-777777-5555555-888888888-10101010101010-|




Chorus:

F# |----------------------------------------------------|
C# |----------------------------------------------------|
G# |----------------------------------------------------| x4
C# |-0000000-33333333333-555555555555-88888888-10101010-|


Intro for solo:

F# |-------------------------------------------------------------|
C# |-------------------------------------------------------------|
G# |-------------------------------------------------------------|
C# |-5h7p0-5h7p0-5h7p0-5h7p0-5h7p0-5h7p0-5h7p0-5h7p0-5h7p0-5h7p0-|

F# |------------------------------------------------------------------------|
C# |------------------------------------------------------------------------|
G# |------------------------------------------7h9p0-7h9p0-7h9p0-7h9p07h9p0--|
C# |-7h9p0-7h9p0-7h9p0-7h9p0-7h9p0------------------------------------------|

F# |--------------------------------------------------|
C# |--------------------------------------------------|
G# |--------------------------------------------------| x4
C# |-00000000-0-000000----000000-0-000000-0-0-0-12|0--|

Intro:

F# |---------------------------------------------------------|
C# |---------------------------------------------------------|
G# |---------------------------------------------------------|
C# |--2p0-2p0-2h5p2-00--5h8p7h8-2p0-2p0-2h5p2-2h5p2-88888888-|
x2

F# |----------------------------------------------------------------|
C# |----------------------------------------------------------------|
G# |----------------------------------------------------------------|
C# | 2p0-2p0-2h5p2-00--5h8p7h8-2p0-2p0-2h5p2-2h5p2-000-000-000-12|0-|

Last time do this part : 

F# |------------------------------------------------------------------------|
C# |------------------------------------------------------------------------|
G# |------------------------------------------------------------------------|
C# |2p0-2p0-2h5p2-00-5h8p7h8-2p0-2p0-2h5p2-2h5p2-8888888-77777-555555 333333|

F# |--------------------------|
C# |--------------------------|
G# |--------------------------|
C# |-0-----3-----5-----8---10-|



F# |------------------------------------------------------------------------|
C# |------------------------------------------------------------------------|
G# |------------------------------------------------------------------------|
C# |-0-0-0-0-0-0-0-0--3-3-3-3-3-3-3-3--5-5-5-5-5-5-5-5--8-8-8-8--10-10-10-10|

F# |----------------------------------------------|
C# |----------------------------------------------|
G# |----------------------------------------------|
C# |-0-00000-00000-0-00000-00000-5-55555-7-77777--|



F# |-----------------------------------------------|
C# |-----------------------------------------------|
G# |-----------------------------------------------|
C# |-0-00000-00000-0-00000-00000-5-55555-8-7-5-3---|

Chorus:

F# |----------------------------------------------------|
C# |----------------------------------------------------|
G# |----------------------------------------------------| x4
C# |-0000000-33333333333-555555555555-88888888-10101010-|



F# |------------------------------------------------------|
C# |------------------------------------------------------|
G# |---------------2h3p2-0000-5|------------1p0-1p0-1p0---| x2
C# |-1p0-1p0------------------------1p0-1p0---------------|
Suggest correction
comments
print report bad tab
guest
You may want to rate the tab now too:
select rating
Wanna post a correction for this tab? Suggest correction