Oops, an error
Loading. Please wait.

The Legacy bass

version 3
version 3

Whole song

Interactive

2,975 views 3 this week
no commentswrite comment
1 2 3 4 5
1 last vote to show rating
add to favorites
×
Save as Personal and add changes to this tab that will be seen only by you. Learn more ›
×
You can save this tab as Personal to edit and correct it or add notes. All changes will be seen only by you. Learn more »
launch autoscroll
font size
0
reset
guitar tuner
edit
Autoscroll
slow
fast
+/-
esc
set tempo
stop
Someone requested tabs for this song on my youtube channel so I'm posting them up here.
Definitely not an easy song, I'm only about 95% sure this tab is accurate (Which 
honestly isn't that high)
The tab and my cover do not exactly match
Dropped C# tuning

Check out my bass cover of this song!

http://www.youtube.com/watch?v=2AsrzBbmCPs

Check out my channel for more bass covers!

http://www.youtube.com/user/chrisistheazn



Intro 

F#|--------------------------------------------------------------------------|
C#|--------------------------------------------------------------------------|
G#|--------------------------------------------------------------------------|
C#|-2-0-2-0-2-5-2-0-0-0-5-0-8-7-5-7-2-0-2-0-2-5-2-0-2-5-2-0-8-8-8------------|

F#|--------------------------------------------------------------------------|
C#|--------------------------------------------------------------------------|
G#|--------------------------------------------------------------------------|
C#|-2-0-2-0-2-5-2-0-0-0-5-0-8-7-5-7-2-0-2-0-2-5-2-0-0---0---0---12\----------|

F#|--------------------------------------------------------------------------|
C#|--------------------------------------------------------------------------|
G#|--------------------------------------------------------------------------|
C#|-2-0-2-0-2-5-2-0-0-0-5-0-8-7-5-7-2-0-2-0-2-5-2-0-2-5-2-0-8-8-8------------|

F#|--------------------------------------------------------------------------|
C#|--------------------------------------------------------------------------|
G#|--------------------------------------------------------------------------|
C#|-2-0-2-0-2-5-2-0-0-0-5-0-8-7-5-7-2-0-2-0-2-5-2-0-0---0---0---12\----------|

F#|--------------------------------------------------------------------------|
C#|--------------------------------------------------------------------------|
G#|--------------------------------------------------------------------------|
C#|-2-0-2-0-2-5-2-0-0-0-5-0-8-7-5-7-2-0-2-0-2-5-2-0-2-5-2-0-8-8-8------------|

F#|--------------------------------------------------------------------------|
C#|--------------------------------------------------------------------------|
G#|-------------------------------------------------1-1-1-1-1-1-3-3-3-3-3-3--|
C#|-2-0-2-0-2-5-2-0-0-0-5-0-8-7-5-7-2-0-2-0-2-5-2-0--------------------------|

Verse 1

F#|----------------------------------------------------------------------|
C#|----------------------------------------------------------------------|
G#|-5---------------5-------3-------5---------------5-------7------------|
C#|---0-0-0-0-0-0-0---0-0-0---0-0-0---0-0-0-0-0-0-0---0-0-0---0-0-0------|

F#|----------------------------------------------------------------------|
C#|----------------------------------------------------------------------|
G#|-5---------------5-------3-------5------------------------------------|
C#|---0-0-0-0-0-0-0---0-0-0---0-0-0---0-0-0-0-0-0-0-8-8-7-7-5-5-3-3------|

   Repeat both lines twice


Pre-Chorus 1

F#|----------------------------------------------------------------------|
C#|----------------------------------------------------------------------|
G#|----------------------------------------------------------------------|
C#|-8-8-8-8-8-8-8---8---8---10-10-10-10-10-10----------------------------|

Chorus 1

F#|----------------------------------------------------------------------|
C#|----------------------------------------------------------------------|
G#|----------------------------------------------------------------------|
C#|-0-0---0---0--0-0-0-3-3---3---3--3-3-3--------------------------------|

F#|----------------------------------------------------------------------|
C#|----------------------------------------------------------------------|
G#|--------------------1-1-1-1-1-1-3-3-3-3-3-3---------------------------|
C#|-5-5---5---5--5-5-5---------------------------------------------------|

   Repeat both lines twice


After-Chorus/Riff

F#|----------------------------------------------------------------------|
C#|----------------------------------------------------------------------|
G#|-----------------------------------------------------1-0-1-2-1-0------|
C#|-1-0-1-0-------------------------1-0-1-0------------------------------|

F#|----------------------------------------------------------------------|
C#|----------------------------------------------------------------------|
G#|-------------2-3-2-0-------------------------2-3-2-0-1-0-1-2-1-0------|
C#|-1-0-1-0-0-0---------0-0-0-5-----1-0-1-0-0-0--------------------------|

Verse 2

   Same as Verse 1


Pre-Chorus 2

F#|----------------------------------------------------------------------|
C#|----------------------------------------------------------------------|
G#|----------------------------------------------------------------------|
C#|-8-8-8-8-8-8-8---8---8---10-10-10-10-10-10-10---10---10---------------|

Chorus 2

F#|----------------------------------------------------------------------|
C#|----------------------------------------------------------------------|
G#|----------------------------------------------------------------------|
C#|-0-0---0---0--0-0-0-3-3---3---3--3-3-3--------------------------------|

F#|----------------------------------------------------------------------|
C#|----------------------------------------------------------------------|
G#|--------------------1-1-1-1-1-1-3-3-3-3-3-3---------------------------|
C#|-5-5---5---5--5-5-5---------------------------------------------------|

   Repeat both lines 4 times


Bridge Part 1

F#|----------------------------------------------------------------------|
C#|----------------------------------------------------------------------|
G#|----------------------------------------------------------------------|
C#|-0--------------------------------------------------------------------|

F#|----------------------------------------------------------------------|
C#|----------------------------------------------------------------------|
G#|----------------------------------------------------------------------| x2
C#|-0-0-0-0-0-0-0-0-0-0-0-0-0-0-0-0-0-0-0-0-0-0-0-0-0-0-0-0-0-0-0-0------|

F#|----------------------------------------------------------------------|
C#|----------------------------------------------------------------------|
G#|----------------------------------------------------------------------| x4
C#|-000000000---00000---------------000000000---00000-0-0-12\------------|

Solo/Bridge Part 2

F#|----------------------------------------------------------------------|
C#|----------------------------------------------------------------------|
G#|----------------------------------------------------------------------|
C#|-0--------------------------------------------------------------------|

F#|----------------------------------------------------------------------|
C#|----------------------------------------------------------------------|
G#|----------------------------------------------------------------------|
C#|-2-0-2-0-2-5-2-0-0-0-5-0-8-7-5-7-2-0-2-0-2-5-2-0-2-5-2-0-8-8-8--------|

F#|----------------------------------------------------------------------|
C#|----------------------------------------------------------------------|
G#|----------------------------------------------------------------------|
C#|-2-0-2-0-2-5-2-0-0-0-5-0-8-7-5-7-2-0-2-0-2-5-2-0-0---0---0---12\------|

F#|----------------------------------------------------------------------|
C#|----------------------------------------------------------------------|
G#|----------------------------------------------------------------------|
C#|-2-0-2-0-2-5-2-0-0-0-5-0-8-7-5-7-2-0-2-0-2-5-2-0-2-5-2-0-8-8-8--------|

F#|----------------------------------------------------------------------|
C#|----------------------------------------------------------------------|
G#|----------------------------------------------------------------------|
C#|-2-0-2-0-2-5-2-0-0-0-5-0-8-7-5-7-2-0-2-0-2-5-2-0-2-5-2-0-8-8-8-8------|

F#|----------------------------------------------------------------------|
C#|----------------------------------------------------------------------|
G#|----------------------------------------------------------------------|
C#|-8-8-8-7-7-7-5-5-5-8-8-8-7-7-5-5--------------------------------------|

Bridge Part 3

F#|----------------------------------------------------------------------|
C#|----------------------------------------------------------------------|
G#|----------------------------------------------------------------------|
C#|-0-------------------------------3------------------------------------|

F#|----------------------------------------------------------------------|
C#|----------------------------------------------------------------------|
G#|----------------------------------------------------------------------|
C#|-5-------------------------------8---------------10-------------------|

F#|----------------------------------------------------------------------|
C#|----------------------------------------------------------------------|
G#|----------------------------------------------------------------------|
C#|-0---0---0---0---0---0---0---0---3---3---3---3---3---3---3---3--------|

F#|----------------------------------------------------------------------|
C#|----------------------------------------------------------------------|
G#|----------------------------------------------------------------------|
C#|-5---5---5---5---5---5---5---5---8---8---8---8---10---10---10---10----|

F#|----------------------------------------------------------------------|
C#|----------------------------------------------------------------------|
G#|----------------------------------------------------------------------|
C#|-0--------------------------------------------------------------------|

F#|----------------------------------------------------------------------|
C#|----------------------------------------------------------------------|
G#|----------------------------------------------------------------------|
C#|-0-00000-00000-0000000000005-55555-55558888888888888888---------------|

F#|----------------------------------------------------------------------|
C#|----------------------------------------------------------------------|
G#|----------------------------------------------------------------------|
C#|-0-00000-00000-0000000000005-55555-55558---7---5---3------------------|

Chorus 3

   Same as Chorus 2


Outro/Riff

F#|----------------------------------------------------------------------|
C#|----------------------------------------------------------------------|
G#|-------------2-3-2-0-------------------------2-3-2-0-1-0-1-2-1-0------|
C#|-1-0-1-0-0-0---------0-0-0-5-----1-0-1-0-0-0--------------------------|

F#|----------------------------------------------------------------------|
C#|----------------------------------------------------------------------|
G#|-------------2-3-2-0-------------------------2-3-2-0-1-0-1------------|
C#|-1-0-1-0-0-0---------0-0-0-5-----1-0-1-0-0-0--------------------------|





| /  slide up
| \  slide down
| h  hammer-on
| p  pull-off
| ~  vibrato
| +  harmonic
| x  Mute note

            
            
Suggest correction
Creating personal tab
Creating personal tab
You can edit any tab online and save it as your Personal.

You can edit, replace or remove any tab part or add personal notes – all changes will be seen only by you.

Personal tabs can be accessed anytime from any device, even offline.
Learn more »
Give kudos to tab author, rate the tab!
1 2 3 4 5
comments
print report bad tab
guest
You may want to rate the tab now too:
select rating
Wanna post a correction for this tab? Suggest correction