Oops, an error
Loading. Please wait.

Victory Call bass

version 1
version 1

Whole song

Interactive

438 views 1 this week
no commentswrite comment
1 2 3 4 5
2 more votes to show rating
add to favorites
×
Save as Personal and add changes to this tab that will be seen only by you. Learn more ›
×
You can save this tab as Personal to edit and correct it or add notes. All changes will be seen only by you. Learn more »
launch autoscroll
font size
0
reset
guitar tuner
edit
Autoscroll
slow
fast
+/-
esc
set tempo
stop

E |-------------------------3-3-3-2-0-----------------------------------0-2-|
B |-0---------------------------------3-0-----------------------2-2-2-3-----|
F#|-------------------------------------------------------------------------|
B |-------------------------------------------------------------------------|
    1 + 2 + 3 + 4 + 1 + 2 + Tripl Tripl 1 + 2 + 3 + 4 + 1 + 2 + Tripl Tripl 

E |-------------------------3333320-------------------------------02|
B |--------------------------------30-----------------------222223--|
F#|-5---\-----------------------------------------------------------|
B |-----------------------------------------------------------------|
    1 + 2 + 3 + 4 + 1 + 2 + 3 + 4 + 1 + 2 + 3 + 4 + 1 + 2 + 3 + 4 + 

E |---------------------------------|
B |-0-------------------------------|
F#|---------------------------------|
B |---------------------------------|
    1 + 2 + 3 + 4 + 1 + 2 + 3 + 4 +

0:18
E |-----------------------------------------------------------------|
B |-----------------------------------------------------------------|
F#|-----------------------------------------------------------------|
B |-0-0-8---7---0-0-0-0-5---3---0-0-0-0-8---7---5---7---5---3---5---|
    1 e + a 2 e + a 3 e + a 4 e + a 1 e + a 2 e + a 3 e + a 4 e + a

E |-----------------------------------------------------------------|
B |-----------------------------------------------------------------|
F#|-----------------------------------------------------------------|
B |-0-0-8-0-7-0-0-0-0-0-5-0-3-0-0-0-0-0-8-0-7-0-5-0-7-0-5-0-3-0-5-0-|
    1 e + a 2 e + a 3 e + a 4 e + a 1 e + a 2 e + a 3 e + a 4 e + a

E |-----------------------------------------------------------------|
B |-----------------------------------------------------------------|
F#|-----------------------------------------------------------------|
B |-0-0-8-0-7-0-0-0-0-0-5-0-3-0-0-0-0-0-8-0-7-0-5-0-8-8-7-7-5-5-7-7-|
    1 e + a 2 e + a 3 e + a 4 e + a 1 e + a 2 e + a 3 e + a 4 e + a

Verse 0:30
E |-------------------------------------------------------------------|
B |o-0-0-3-0-3-0-0-0-0-0-0-0-3-0-0-0-0-0-3-0-3-0-0-0-3-0-2-3-5-3-2-3-o|x4
F#|o-----------------------------------------------------------------o|
B |-------------------------------------------------------------------|
     1 e + a 2 e + a 3 e + a 4 e + a 1 e + a 2 e + a 3 e + a 4 e + a

rest

Chorus 0:49
E |-----------------------------------------------------------------|
B |-----------------------------------------------------------------|
F#|-----------------------------------------------------------------|
B |-0-0-0-0-0-0-0-0-0-0-0-0-0-0-0-0-8-8-8-8-8-8-8-8-8-8-8-8-8-8-8-8-|
    1 + 2 + 3 + 4 + 1 + 2 + 3 + 4 + 1 + 2 + 3 + 4 + 1 + 2 + 3 + 4 + 

E |-----------------------------------------------------------------|
B |-----------------------------------------------------------------|
F#|-----------------------------------------------------------------|
B |-3-3-3-3-3-3-3-3-3-3-3-3-3-3-3-3-3-7-7-7-7-7-7-7-7-7-7-7-7-\-7-\-|
    1 + 2 + 3 + 4 + 1 + 2 + 3 + 4 + 1 + 2 + 3 + 4 + 1 + 2 + 3 + 4 + 

Interlude 1:04
E |-----------------------------------------------------------------|
B |-----------------------------------------------------------------|
F#|-----------------------------------------------------------------|
B |-0-0-8-0-7-0-0-0-0-0-5-0-3-0-0-0-0-0-8-0-7-0-5-0-7-0-5-0-3-0-5-0-|
    1 e + a 2 e + a 3 e + a 4 e + a 1 e + a 2 e + a 3 e + a 4 e + a

E |-----------------------------------------------------------------|
B |-----------------------------------------------------------------|
F#|-----------------------------------------------------------------|
B |-0-0-8-0-7-0-0-0-0-0-5-0-3-0-0-0-0-0-8-0-7-0-5-0-8-8-7-7-5-5-7-7-|
    1 e + a 2 e + a 3 e + a 4 e + a 1 e + a 2 e + a 3 e + a 4 e + a

Verse 1:12
E |-------------------------------------------------------------------|
B |o-0-0-3-0-3-0-0-0-0-0-0-0-3-0-0-0-0-0-3-0-3-0-0-0-3-0-2-3-5-3-2-3-o|x4
F#|o-----------------------------------------------------------------o|
B |-------------------------------------------------------------------|
     1 e + a 2 e + a 3 e + a 4 e + a 1 e + a 2 e + a 3 e + a 4 e + a

1:27
E |-----------------------------------------------------------------|
B |-5-------3-------2-------0---------------0---0---2---2---3---3---|
F#|---------------------------------4---4---------------------------|
B |-----------------------------------------------------------------|
    1 e + a 2 e + a 3 e + a 4 e + a 1 e + a 2 e + a 3 e + a 4 e + a

Chorus 1:31
E |-----------------------------------------------------------------|
B |-----------------------------------------------------------------|
F#|-----------------------------------------------------------------|
B |-0---7---7---7---7---7---7---7---7---7---7---7---7---7---7---7---|
    1 e + a 2 e + a 3 e + a 4 e + a 1 e + a 2 e + a 3 e + a 4 e + a

E |-----------------------------------------------------------------|
B |-----------------------------------------------------------------|
F#|-----------------------------------------------------------------|
B |-8---8---8---8---8---8---8---8---8---8---8---8---8---8---8---8---|
    1 e + a 2 e + a 3 e + a 4 e + a 1 e + a 2 e + a 3 e + a 4 e + a

E |-----------------------------------------------------------------|
B |-3---3---3---3---3---3---3---3---3---3---3---3---3---3---3---3---|
F#|-----------------------------------------------------------------|
B |-----------------------------------------------------------------|
    1 e + a 2 e + a 3 e + a 4 e + a 1 e + a 2 e + a 3 e + a 4 e + a

E |-2---2---2---2---2---2---2---2---2-2-2-2-2-2-2-2-----------------|
B |-------------------------------------------------3-0-2-3-5-3-2-3-|
F#|-----------------------------------------------------------------|
B |-----------------------------------------------------------------|
    1 e + a 2 e + a 3 e + a 4 e + a 1 e + a 2 e + a 3 e + a 4 e + a

1:46
E |-----------------------------------------------------------------|
B |-----------------------------------------------------------------|
F#|-----------------------------------------------------------------|
B |-0---0---0---0---0---0---0---0---0---0---0---0---0---0---0---0---|
    1 e + a 2 e + a 3 e + a 4 e + a 1 e + a 2 e + a 3 e + a 4 e + a

E |-----------------------------------------------------------------|
B |-----------------------------------------------------------------|
F#|-1---1---1---1---1---1---1---1---1---1---1---1---1-3-1-0-0-1-0---|
B |---------------------------------------------------------------5-|
    1 e + a 2 e + a 3 e + a 4 e + a 1 e + a 2 e + a 3 e + a 4 e + a

E |---------------------------------5-------------------------------|
B |-3---3---3---3---3---3---3---3-------3---3---3---3---3---3---3---|
F#|-----------------------------------------------------------------|
B |-----------------------------------------------------------------|
    1 e + a 2 e + a 3 e + a 4 e + a 1 e + a 2 e + a 3 e + a 4 e + a

E |-----2---2---2---2---2---2---2---2-2-2-2-2-2-2-2-----------------|
B |-3-----------------------------------------------3-0-2-3-5-3-2-3-|
F#|-----------------------------------------------------------------|
B |-----------------------------------------------------------------|
    1 e + a 2 e + a 3 e + a 4 e + a 1 e + a 2 e + a 3 e + a 4 e + a

Interlude 2:01
E |------------------------------------------------------------------|
B |o-------------------------0-----------------------2-----3---3---3-|
F#|o-----------------1-4-1-0-----------------------------------------|
B |--0---------------------------------------0-0-0-0-----------------|
     1 e + a 2 e + a 3 e + a 4 e + a 1 e + a 2 e + a 3 e + a 4 e + a

E |------------------------------------------------------------------|
B |-------------------------0-------0-------------------------------o|
F#|-----------------1-4-1-0-----------4-1-4-3-1-3-1-0-1-0---0-------o|
B |-0-----------------------------------------------------5---5-3-5--|
    1 e + a 2 e + a 3 e + a 4 e + a 1 e + a 2 e + a 3 e + a 4 e + a

E |-3-2-0-2-0---0---0-2-0---0-2-3-2-|
B |-----------4---4-------4---------|
F#|---------------------------------|
B |---------------------------------|
    1 e + a 2 e + a 3 e + a 4 e + a 

rest

Solo 2:22
E |---------|-------------------------------------------------------------------|
B |---------|o-----------------------------------------------------------------o|x4
F#|---------|o-----------------------------------------------------------------o|
B |-7---\---|--0-0-8-0-7-0-0-0-0-0-5-0-3-0-0-0-0-0-8-0-7-0-5-0-8-0-7-0-5-0-7-0--|
    4 e + a    1 e + a 2 e + a 3 e + a 4 e + a 1 e + a 2 e + a 3 e + a 4 e + a

2:38
E |---------------------------------|
B |---------------------------------|
F#|---------5-5-5-5-3-3-3-3---------|
B |-8-8-8-8-----------------5-5-5-5-|
    1 e + a 2 e + a 3 e + a 4 e + a

Rest

Chorus 2:44
E |-----------------------------------------------------------------|
B |-----------------------------------------------------------------|
F#|-----------------------------------------------------------------|
B |-8---8---8---8---8---8---8---8---8---8---8---8---8---8---8---8---|
    1 e + a 2 e + a 3 e + a 4 e + a 1 e + a 2 e + a 3 e + a 4 e + a

E |-----------------------------------------------------------------|
B |-----------------------------------------------------------------|
F#|-------------------------------------------------3---------------|
B |-3---3---3---3---3---3---3---3---3---3---3---3-------3---3---3---|
    1 e + a 2 e + a 3 e + a 4 e + a 1 e + a 2 e + a 3 e + a 4 e + a

E |-----------------------------------------------------------------|
B |-------------------------------------------------3-0-2-3-5-3-2-3-|
F#|-0---0---0---0---0---0---0---0---0---0---0---0-------------------|
B |-----------------------------------------------------------------|
    1 e + a 2 e + a 3 e + a 4 e + a 1 e + a 2 e + a 3 e + a 4 e + a

2:54
E |-----------------------------------------------------------------|
B |-0-0-0-0-0-0-0-0-0-0-0-0-0-0-0-0-0-0-0-0-0-0-0-0-0-0-0-0-0-0-0-0-|
F#|-----------------------------------------------------------------|
B |-----------------------------------------------------------------|
    1 e + a 2 e + a 3 e + a 4 e + a 1 e + a 2 e + a 3 e + a 4 e + a

E |-----------------------------------------------------------------|
B |-----------------------------------------------------------------|
F#|-1-1-1-1-1-1-1-1-1-1-1-1-1-1-1-1-1-1-1-1-1-1-1-1-1-1-1-1-1-1-1-1-|
B |-----------------------------------------------------------------|
    1 e + a 2 e + a 3 e + a 4 e + a 1 e + a 2 e + a 3 e + a 4 e + a

E |-----------------------------------------------------------------|
B |-----------------------------------------------------------------|
F#|-----------------------------------------------------------------|
B |-3-3-3-3-3-3-3-3-3-3-3-3-3-3-3-3-3-3-3-3-3-3-3-3-3-3-3-3-5-5-5-5-|
    1 e + a 2 e + a 3 e + a 4 e + a 1 e + a 2 e + a 3 e + a 4 e + a

E |-----------------------------------------------------------------|
B |-----------------------------------------------------------------|
F#|-----------------------------------------------------------------|
B |-7-7-7-7-7-7-7-7-7-7-7-7-7-7-7-7-7-7-7-7-7-7-7-7-3-0-2-3-5-3-2-3-|
    1 e + a 2 e + a 3 e + a 4 e + a 1 e + a 2 e + a 3 e + a 4 e + a

3:09
E |-----------------------------------------------------------------|
B |-------------------------0-----------------------2-----3---3---3-|
F#|-----------------1-4-1-0-----------------------------------------|
B |-0---------------------------------------0-0-0-0-----------------|
    1 e + a 2 e + a 3 e + a 4 e + a 1 e + a 2 e + a 3 e + a 4 e + a

E |-----------------------------------------------------------------|
B |-------------------------0-------0-------------------------------|
F#|-----------------1-4-1-0-----------4-1-4-3-1-3-1-0-1-0---0-------|
B |-0-----------------------------------------------------5---5-3-5-|
    1 e + a 2 e + a 3 e + a 4 e + a 1 e + a 2 e + a 3 e + a 4 e + a

E |-----------------------------------------------------------------|
B |-----------------------------------------------------------------|
F#|-----------------------------------------------------------------|
B |-0-0-8-0-7-0-0-0-0-0-5-0-3-0-0-0-0-0-8-0-7-0-5-0-8-0-7-0-5-0-7-0-|
    1 e + a 2 e + a 3 e + a 4 e + a 1 e + a 2 e + a 3 e + a 4 e + a

E |-----------------------------------------------------------------|
B |-----------------------------------------------------------------|
F#|-----------------------------------------------------------------|
B |-0-0-8-0-7-0-0-0-0-0-5-0-3-0-0-0-0-0-8-0-7-0-5-0-7-8-7-5-5-7-5-3-|
    1 e + a 2 e + a 3 e + a 4 e + a 1 e + a 2 e + a 3 e + a 4 e + a
 
E |---------------------------------|
B |---------------------------------|
F#|---------------------------------|
B |-0-------------------------------|
    1 e + a 2 e + a 3 e + a 4 e + a
Tabbed by Dave Vucko

================================================================================


F|-------------------------------------------------------------------------|
C|-------------------------7-7-7-6-4-----------------------------------4-6-|
G|-4---------------------------------7-4-----------------------6-6-6-7-----|
C|-------------------------------------------------------------------------|
B|-------------------------------------------------------------------------|
   1 + 2 + 3 + 4 + 1 + 2 + Tripl Tripl 1 + 2 + 3 + 4 + 1 + 2 + Tripl Tripl 

F|-----------------------------------------------------------------|
C|-------------------------7777764-------------------------------46|
G|-4---\--------------------------74-----------------------666667--|
C|-----------------------------------------------------------------|
B|-----------------------------------------------------------------|
   1 + 2 + 3 + 4 + 1 + 2 + 3 + 4 + 1 + 2 + 3 + 4 + 1 + 2 + 3 + 4 + 

F|---------------------------------|
C|---------------------------------|
G|-4---\---------------------------|
C|---------------------------------|
B|---------------------------------|
   1 + 2 + 3 + 4 + 1 + 2 + 3 + 4 +

0:18
F|-----------------------------------------------------------------|
C|-----------------------------------------------------------------|
G|-----------------------------------------------------------------|
C|-----------------------------------------------------------------|
B|-0-0-8---7---0-0-0-0-5---3---0-0-0-0-8---7---5---7---5---3---5---|
   1 e + a 2 e + a 3 e + a 4 e + a 1 e + a 2 e + a 3 e + a 4 e + a

F|-----------------------------------------------------------------|
C|-----------------------------------------------------------------|
G|-----------------------------------------------------------------|
C|-----------------------------------------------------------------|
B|-0-0-8-0-7-0-0-0-0-0-5-0-3-0-0-0-0-0-8-0-7-0-5-0-7-0-5-0-3-0-5-0-|
   1 e + a 2 e + a 3 e + a 4 e + a 1 e + a 2 e + a 3 e + a 4 e + a

F|-----------------------------------------------------------------|
C|-----------------------------------------------------------------|
G|-----------------------------------------------------------------|
C|-----------------------------------------------------------------|
B|-0-0-8-0-7-0-0-0-0-0-5-0-3-0-0-0-0-0-8-0-7-0-5-0-8-8-7-7-5-5-7-7-|
   1 e + a 2 e + a 3 e + a 4 e + a 1 e + a 2 e + a 3 e + a 4 e + a

Verse 0:30
F|-------------------------------------------------------------------|
C|o-----------------------------------------------------------------o|
G|--4-4-7-4-7-4-4-4-4-4-4-4-7-4-4-4-4-4-7-4-7-4-4-4-7-4-6-7-9-7-6-7--|x4
C|o-----------------------------------------------------------------o|
B|-------------------------------------------------------------------|
    1 e + a 2 e + a 3 e + a 4 e + a 1 e + a 2 e + a 3 e + a 4 e + a

rest

Chorus 0:49
F|-----------------------------------------------------------------|
C|-----------------------------------------------------------------|
G|-----------------------------------------------------------------|
C|-----------------------------------------------------------------|
B|-0-0-0-0-0-0-0-0-0-0-0-0-0-0-0-0-8-8-8-8-8-8-8-8-8-8-8-8-8-8-8-8-|
   1 + 2 + 3 + 4 + 1 + 2 + 3 + 4 + 1 + 2 + 3 + 4 + 1 + 2 + 3 + 4 + 

F|-----------------------------------------------------------------|
C|-----------------------------------------------------------------|
G|-----------------------------------------------------------------|
C|-----------------------------------------------------------------|
B|-3-3-3-3-3-3-3-3-3-3-3-3-3-3-3-3-3-7-7-7-7-7-7-7-7-7-7-7-7-\-7-\-|
   1 + 2 + 3 + 4 + 1 + 2 + 3 + 4 + 1 + 2 + 3 + 4 + 1 + 2 + 3 + 4 + 

Interlude 1:04
F|-----------------------------------------------------------------|
C|-----------------------------------------------------------------|
G|-----------------------------------------------------------------|
C|-----------------------------------------------------------------|
B|-0-0-8-0-7-0-0-0-0-0-5-0-3-0-0-0-0-0-8-0-7-0-5-0-7-0-5-0-3-0-5-0-|
   1 e + a 2 e + a 3 e + a 4 e + a 1 e + a 2 e + a 3 e + a 4 e + a

F|-----------------------------------------------------------------|
C|-----------------------------------------------------------------|
G|-----------------------------------------------------------------|
C|-----------------------------------------------------------------|
B|-0-0-8-0-7-0-0-0-0-0-5-0-3-0-0-0-0-0-8-0-7-0-5-0-8-8-7-7-5-5-7-7-|
   1 e + a 2 e + a 3 e + a 4 e + a 1 e + a 2 e + a 3 e + a 4 e + a

Verse 1:12
F|-------------------------------------------------------------------|
C|o-----------------------------------------------------------------o|
G|--4-4-7-4-7-4-4-4-4-4-4-4-7-4-4-4-4-4-7-4-7-4-4-4-7-4-6-7-9-7-6-7--|x4
C|o-----------------------------------------------------------------o|
B|-------------------------------------------------------------------|
    1 e + a 2 e + a 3 e + a 4 e + a 1 e + a 2 e + a 3 e + a 4 e + a

1:27
F|-----------------------------------------------------------------|
C|-----------------------------------------------------------------|
G|-9-------7-------6-------4-------3---3---4---4---6---6---7---7---|
C|-----------------------------------------------------------------|
B|-----------------------------------------------------------------|
   1 e + a 2 e + a 3 e + a 4 e + a 1 e + a 2 e + a 3 e + a 4 e + a

Chorus 1:31
F|-----------------------------------------------------------------|
C|-----------------------------------------------------------------|
G|-----------------------------------------------------------------|
C|-----------------------------------------------------------------|
B|-0---7---7---7---7---7---7---7---7---7---7---7---7---7---7---7---|
   1 e + a 2 e + a 3 e + a 4 e + a 1 e + a 2 e + a 3 e + a 4 e + a

F|-----------------------------------------------------------------|
C|-----------------------------------------------------------------|
G|-----------------------------------------------------------------|
C|-----------------------------------------------------------------|
B|-8---8---8---8---8---8---8---8---8---8---8---8---8---8---8---8---|
   1 e + a 2 e + a 3 e + a 4 e + a 1 e + a 2 e + a 3 e + a 4 e + a

F|-----------------------------------------------------------------|
C|-----------------------------------------------------------------|
G|-7---7---7---7---7---7---7---7---7---7---7---7---7---7---7---7---|
C|-----------------------------------------------------------------|
B|-----------------------------------------------------------------|
   1 e + a 2 e + a 3 e + a 4 e + a 1 e + a 2 e + a 3 e + a 4 e + a

F|-----------------------------------------------------------------|
C|-6---6---6---6---6---6---6---6---6-6-6-6-6-6-6-6-----------------|
G|-------------------------------------------------7-4-6-7-9-7-6-7-|
C|-----------------------------------------------------------------|
B|-----------------------------------------------------------------|
   1 e + a 2 e + a 3 e + a 4 e + a 1 e + a 2 e + a 3 e + a 4 e + a

1:46
F|-----------------------------------------------------------------|
C|-----------------------------------------------------------------|
G|-----------------------------------------------------------------|
C|-----------------------------------------------------------------|
B|-0---0---0---0---0---0---0---0---0---0---0---0---0---0---0---0---|
   1 e + a 2 e + a 3 e + a 4 e + a 1 e + a 2 e + a 3 e + a 4 e + a

F|------------------------------------------------------------------|
C|------------------------------------------------------------------|
G|------------------------------------------------------------------|
C|------------------------------------------------------------------|
B|-8---8---8---8---8---8---8---8---8---8---8---8---8-10-8-7-7-8-7-5-|
   1 e + a 2 e + a 3 e + a 4 e + a 1 e + a 2 e + a 3 e  + a 4 e + a

F|-----------------------------------------------------------------|
C|---------------------------------9-------------------------------|
G|-7---7---7---7---7---7---7---7-------7---7---7---7---7---7---7---|
C|-----------------------------------------------------------------|
B|-----------------------------------------------------------------|
   1 e + a 2 e + a 3 e + a 4 e + a 1 e + a 2 e + a 3 e + a 4 e + a

F|-----------------------------------------------------------------|
C|-----6---6---6---6---6---6---6---6-6-6-6-6-6-6-6-----------------|
G|-7-----------------------------------------------7-4-6-7-9-7-6-7-|
C|-----------------------------------------------------------------|
B|-----------------------------------------------------------------|
   1 e + a 2 e + a 3 e + a 4 e + a 1 e + a 2 e + a 3 e + a 4 e + a

Interlude 2:01
F|------------------------------------------------------------------|
C|o-----------------------------------------------------------------|
G|------------------0-3-0---4-----------------------6-----7---7---7-|
C|o-----------------------6-----------------------------------------|
B|--0---------------------------------------0-0-0-0-----------------|
    1 e + a 2 e + a 3 e + a 4 e + a 1 e + a 2 e + a 3 e + a 4 e + a

F|------------------------------------------------------------------|
C|-----------------------------------------------------------------o|
G|-----------------0-3-0---4-------4-3-0-3-2-0-2-0------------------|
C|-----------------------6-----------------------------------------o|
B|-0-----------------------------------------------7-8-7-5-7-5-3-5--|
   1 e + a 2 e + a 3 e + a 4 e + a 1 e + a 2 e + a 3 e + a 4 e + a

F|---------------------------------|
C|-7-6-4-6-4-3-4-3-4-6-4-3-4-6-7-6-|
G|---------------------------------|
C|---------------------------------|
B|---------------------------------|
   1 e + a 2 e + a 3 e + a 4 e + a 

rest

Solo 2:22
F|---------|-------------------------------------------------------------------|
C|---------|o-----------------------------------------------------------------o|
G|---------|-------------------------------------------------------------------|x4
C|---------|o-----------------------------------------------------------------o|
B|-7---\---|--0-0-8-0-7-0-0-0-0-0-5-0-3-0-0-0-0-0-8-0-7-0-5-0-8-0-7-0-5-0-7-0--|
   4 e + a    1 e + a 2 e + a 3 e + a 4 e + a 1 e + a 2 e + a 3 e + a 4 e + a

2:38
F|-------------------------------------|
C|-------------------------------------|
G|-------------------------------------|
C|---------10-10-10-10-8-8-8-8---------|
B|-8-8-8-8---------------------5-5-5-5-|
   1 e + a 2  e  +  a  3 e + a 4 e + a

Rest

Chorus 2:44
F|-----------------------------------------------------------------|
C|-----------------------------------------------------------------|
G|-----------------------------------------------------------------|
C|-----------------------------------------------------------------|
B|-8---8---8---8---8---8---8---8---8---8---8---8---8---8---8---8---|
   1 e + a 2 e + a 3 e + a 4 e + a 1 e + a 2 e + a 3 e + a 4 e + a

F|-----------------------------------------------------------------|
C|-----------------------------------------------------------------|
G|-------------------------------------------------2---------------|
C|-----------------------------------------------------------------|
B|-3---3---3---3---3---3---3---3---3---3---3---3-------3---3---3---|
   1 e + a 2 e + a 3 e + a 4 e + a 1 e + a 2 e + a 3 e + a 4 e + a

F|-----------------------------------------------------------------|
C|-----------------------------------------------------------------|
G|-------------------------------------------------7-4-6-7-9-7-6-7-|
C|-6---6---6---6---6---6---6---6---6---6---6---6-------------------|
B|-----------------------------------------------------------------|
   1 e + a 2 e + a 3 e + a 4 e + a 1 e + a 2 e + a 3 e + a 4 e + a

2:54
F|-----------------------------------------------------------------|
C|-----------------------------------------------------------------|
G|-4-4-4-4-4-4-4-4-4-4-4-4-4-4-4-4-4-4-4-4-4-4-4-4-4-4-4-4-4-4-4-4-|
C|-----------------------------------------------------------------|
B|-----------------------------------------------------------------|
   1 e + a 2 e + a 3 e + a 4 e + a 1 e + a 2 e + a 3 e + a 4 e + a

F|-----------------------------------------------------------------|
C|-----------------------------------------------------------------|
G|-----------------------------------------------------------------|
C|-6-6-6-6-6-6-6-6-6-6-6-6-6-6-6-6-6-6-6-6-6-6-6-6-6-6-6-6-6-6-6-6-|
B|-----------------------------------------------------------------|
   1 e + a 2 e + a 3 e + a 4 e + a 1 e + a 2 e + a 3 e + a 4 e + a

F|-----------------------------------------------------------------|
C|-----------------------------------------------------------------|
G|-----------------------------------------------------------------|
C|-----------------------------------------------------------------|
B|-3-3-3-3-3-3-3-3-3-3-3-3-3-3-3-3-3-3-3-3-3-3-3-3-3-3-3-3-5-5-5-5-|
   1 e + a 2 e + a 3 e + a 4 e + a 1 e + a 2 e + a 3 e + a 4 e + a

F|-----------------------------------------------------------------|
C|-----------------------------------------------------------------|
G|-----------------------------------------------------------------|
C|-----------------------------------------------------------------|
B|-7-7-7-7-7-7-7-7-7-7-7-7-7-7-7-7-7-7-7-7-7-7-7-7-3-0-2-3-5-3-2-3-|
   1 e + a 2 e + a 3 e + a 4 e + a 1 e + a 2 e + a 3 e + a 4 e + a

3:09
F|-----------------------------------------------------------------|
C|-----------------------------------------------------------------|
G|-----------------0-3-0---4-----------------------6-----7---7---7-|
C|-----------------------6-----------------------------------------|
B|-0---------------------------------------0-0-0-0-----------------|
   1 e + a 2 e + a 3 e + a 4 e + a 1 e + a 2 e + a 3 e + a 4 e + a

F|-----------------------------------------------------------------|
C|-----------------------------------------------------------------|
G|-----------------0-3-0---4-------4-3-0-3-2-0-2-0-----------------|
C|-----------------------6-----------------------------------------|
B|-0-----------------------------------------------7-8-7-5-7-5-3-5-|
   1 e + a 2 e + a 3 e + a 4 e + a 1 e + a 2 e + a 3 e + a 4 e + a

F|-----------------------------------------------------------------|
C|-----------------------------------------------------------------|
G|-----------------------------------------------------------------|
C|-----------------------------------------------------------------|
B|-0-0-8-0-7-0-0-0-0-0-5-0-3-0-0-0-0-0-8-0-7-0-5-0-8-0-7-0-5-0-7-0-|
   1 e + a 2 e + a 3 e + a 4 e + a 1 e + a 2 e + a 3 e + a 4 e + a

F|-----------------------------------------------------------------|
C|-----------------------------------------------------------------|
G|-----------------------------------------------------------------|
C|-----------------------------------------------------------------|
B|-0-0-8-0-7-0-0-0-0-0-5-0-3-0-0-0-0-0-8-0-7-0-5-0-7-8-7-5-5-7-5-3-|
   1 e + a 2 e + a 3 e + a 4 e + a 1 e + a 2 e + a 3 e + a 4 e + a

F|---------------------------------|
C|---------------------------------|
G|---------------------------------|
C|---------------------------------|
B|-0-------------------------------|
   1 e + a 2 e + a 3 e + a 4 e + a
Tabbed by Dave Vucko
Suggest correction
Creating personal tab
Creating personal tab
You can edit any tab online and save it as your Personal.

You can edit, replace or remove any tab part or add personal notes – all changes will be seen only by you.

Personal tabs can be accessed anytime from any device, even offline.
Learn more »
Give kudos to tab author, rate the tab!
1 2 3 4 5
comments
print report bad tab
guest
You may want to rate the tab now too:
select rating
Wanna post a correction for this tab? Suggest correction