Oops, an error
Loading. Please wait.

We Dont Belong Bass Tab

version 1
version 1

Whole song

Interactive

1,103 views 3 this week
no commentswrite comment
1 2 3 4 5
excellent!
x 4
add to favorites
launch autoscroll
font size
0
reset
guitar tuner
Tab Pro tools
  • play this tab
  • loop segment
  • change instrument
  • show fretboard
  • metronome
×
Best way to learn
"We Dont Belong"
Autoscroll
slow
fast
+/-
esc
set tempo
stop
Contributor
Tuning
C G C F A D
0:06 p
F|------------------------------------------------------------------|
C|o-----------------------------------------------------------------|
G|o-5-5-5-5-5-5-5-5-4-4-4-4-4-4-4-4-3-3-3-3-3-3-3-3-2-2-2-2-2-2-2-2-|
C|------------------------------------------------------------------|

F|------------------------------------------------------------------|
C|-----------------------------------------------------------------o|
G|-1-1-1-1-1-1-1-1-1-1-1-1-1-1-1-1-1-1-1-1-1-1-1-1-1-1-1-1-1-1-1-1-o|
C|------------------------------------------------------------------|

0:36 mp
F|-----------------------------------------------------------------|
C|-----------------------------------------------------------------|
G|-5-5-5-5-5-5-5-5-4-4-4-4-4-4-4-4-3-3-3-3-3-3-3-3-2-2-2-2-2-2-2-2-|
C|-----------------------------------------------------------------|

F|-----------------------------------------------------------------|
C|-----------------------------------------------------------------|
G|-1-1-1-1-1-1-1-1-1-1-1-1-1-1-1-1-1-1-1-1-1-1-1-1-5---------------|
C|-----------------------------------------------------------------|

0:50 f
F|-----------------------------------------------------------------|
C|-----------------------------------------------------------------|
G|-5-5-5-5-5-5-5-5-1-1-1-1-1-1-1-1-----------------3-3-3-3-3-3-0-0-|
C|---------------------------------3-3-3-3-3-3-3-3-----------------|

F|-----------------------------------------------------------------|
C|-----------------------------------------------------------------|
G|-5-5-5-5-5-5-5-5-1-1-1-1-1-1-1-1-8-8-8-8-8-8-8-8-7-7-7-7-7-7-3-3-|
C|-----------------------------------------------------------------|

1:05
F|-------------------------------------------------------------------|
C|-------------------------------------------------------------------|
G|-5-5-5-5-5-5-7-8-------------8-10-8-8-8-8-8-8-8-10-7-7-7-7-7-7-3-3-|
C|-----------------8-8-8-8-8-8---------------------------------------|

1:13
F|--------------------------------------------------------------------------------|
C|--------------------------------------------------------------------------------|
G|-5-5-5-5-5-5-5-3-1-1-1-1-1-1-1-1------------------------------------------------|
C|---------------------------------3-3-3-3-3-3-3-3-10-10-10-10-10-10-10-10-12-\---|

Rest

1:28
F|-----------------------------------------------------------------|
C|-----------------------------------------------------------------|
G|-5-5-5-5-5-5-5-5-4-4-4-4-4-4-4-4-3-3-3-3-3-3-3-3-2-2-2-2-2-2-2-2-|
C|-----------------------------------------------------------------|

F|-----------------------------------------------------------------|
C|-----------------------------------------------------------------|
G|-1-1-1-1-1-1-1-1-1-1-1-1-1-1-1-1-1-1-1-1-1-1-1-1-1-1-1-1-1-1-1-1-|
C|-----------------------------------------------------------------|

1:43
F|------------------------------------------------------------------|
C|------------------------------------------------------------------|
G|-5---5---5---7-\-4---4---4---8-\-3---3---3---10-\-2---2---2---8-\-|
C|------------------------------------------------------------------|

F|-----------------------------------------------------------------|
C|-----------------------------------------------------------------|
G|-1---1---1---8-\-1---1---1---8-\-1---1---1---1---5---------------|
C|-----------------------------------------------------------------|

1:57
F|-----------------------------------------------------------------|
C|-----------------------------------------------------------------|
G|-5-5-5-5-5-5-5-5-1-1-1-1-1-1-1-1-----------------3-3-3-3-3-3-0-0-|
C|---------------------------------3-3-3-3-3-3-3-3-----------------|

F|-----------------------------------------------------------------|
C|-----------------------------------------------------------------|
G|-5-5-5-5-5-5-5-5-1-1-1-1-1-1-1-1-8-8-8-8-8-8-8-8-7-7-7-7-7-7-3-3-|
C|-----------------------------------------------------------------|

2:12
F|-------------------------------------------------------------------|
C|-------------------------------------------------------------------|
G|-5-5-5-5-5-5-7-8-------------8-10-8-8-8-8-8-8-8-10-7-7-7-7-7-7-3-3-|
C|-----------------8-8-8-8-8-8---------------------------------------|

F|-----------------------------------------------------------------|
C|-----------------------------------------------------------------|
G|-5-5-5-5-5-5-5-3-1-1-1-1-1-1-1-1-----------------3-3-3-3-3-3-3-3-|
C|---------------------------------3-3-3-3-3-3-3-3-----------------|

2:27
F|---------------------------------------------------------------------|
C|---------------------------------------------------------------------|
G|---------------------------------------------------------------------|
C|-0-0---0-0---0-0---0-3-0-10-8-5h8-0-0---0-0---0-0---0-3-0-10-8-10-12-|

F|-------------------------------------------------------------------|
C|-------------------------------------------------------------------|
G|-------------------------------------------------------------------|
C|-0-0---0-0---0-0---0-3-0-10-8-5h8-0-0---0-0---0-0---0-3-0-10-8-5-b-|

2:42
F|------------------------------------------------------------------|
C|------------------------------------------------------------------|
G|------------------------------------------------------------------|
C|-0----/10h12------11--------------10--------------9---------------|

F|-----------------------------------------------------------------|
C|-----------------------------------------------------------------|
G|-----------------------------------------------------------------|
C|-8-----------------------8h10p8---7-----------------------7-\----|

2:56
F|-----------------------------------------------------------------|
C|-----------------------------------------------------------------|
G|-5-5-5-5-5-5-5-5-1-1-1-1-1-1-1-1-----------------3-3-3-3-3-3-0-0-|
C|---------------------------------3-3-3-3-3-3-3-3-----------------|

F|-----------------------------------------------------------------|
C|-----------------------------------------------------------------|
G|-5-5-5-5-5-5-5-5-1-1-1-1-1-1-1-1-8-8-8-8-8-8-8-8-7-7-7-7-7-7-3-3-|
C|-----------------------------------------------------------------|

F|-------------------------------------------------------------------|
C|-------------------------------------------------------------------|
G|-5-5-5-5-5-5-7-8-------------8-10-8-8-8-8-8-8-8-10-7-7-7-7-7-7-3-3-|
C|-----------------8-8-8-8-8-8---------------------------------------|

F|--------------------------------------------------------------------------------|
C|--------------------------------------------------------------------------------|
G|-5-5-5-5-5-5-5-3-1-1-1-1-1-1-1-1------------------------------------------------|
C|---------------------------------3-3-3-3-3-3-3-3-10-10-10-10-10-10-10-10-12-\---|
Tabbed by Dave Vucko
comments
print report bad tab
I want to post or [tab]
guest
You may want to rate the tab now too:
select rating
Please do not post tabs as comments. Select "correction" instead!