Oops, an error
Loading. Please wait.

Wretched And Divine Bass

version 1
version 1

Whole song

Interactive

2,415 views 1 this week
5 commentsread comments
1 2 3 4 5
x 3
add to favorites
launch autoscroll
font size
0
reset
guitar tuner
×
Best way to learn
"Wretched And Divine"
Autoscroll
slow
fast
+/-
esc
set tempo
stop
Author
Tuning
C G C F
F|-----------------------------------------------------------------|
C|-----------------------------------------------------------------|
G|---------------------------------0-0-0-0-0-0-0-0---------4-4-4-4-|
C|-4-4-4-4-4-4-4-4-4-4-4-4-4-4-4-4-----------------2-2-2-2---------|
B|--------------------------------------------------------(0-0-0-0)|

F|-----------------------------------------------------------------|
C|-----------------------------------------------------------------|
G|---------------------------------------------------------4-4-4-4-|
C|-4-4-4-4-4-4-4-4-4-4-4-4-4-4-4-4-0-0-0-0-0-0-0-0-2-2-2-2---------|
B|--------------------------------------------------------(0-0-0-0)|

0:10
F|-----------------------------------------------------------------|
C|-----------------------------------------------------------------|
G|-----------------------------------------------------------------|
C|-4-4-4-4-4-4-4-4---4-4-4-4-4-4-4---0-0-0-0-0-0-0---2-2-2-6-7-6-2-|

F|-----------------------------------------------------------------|
C|-----------------------------------------------------------------|
G|-----------------------------------0-0-0-0-0-0-0-----------------|
C|-4-4-4-4-4-4-4-4---4-4-4-4-4-4-4-------------------2-2-2-6-7-6-2-|

0:20
F|------------------------------------------------------------------|
C|o-----------------------------------------------------------------|
G|o-----------------------------------------------------------------|
C|----4-4-4-4-4-4-4---4-4-4-4-4-4-4-0-0-0-0-0-0-0-0---2-2-2-6-7-6-2-|

F|------------------------------------------------------------------|
C|-----------------------------------------------------------------o|
G|---------------------------------0-0-0-0-0-0-0-0-----------------o|
C|---4-4-4-4-4-4-4---4-4-4-4-4-4-4-------------------2-2-2-6-7-6-2--|

0:40
F|-----------------------------------------------------------------|
C|-----------------------------------------------------------------|
G|-------------------------4-4-4-4-----------------4-4-----4-4-4-4-|
C|-0-0-----0-0-----2-2-------------4-4-----4-4---------------------|
B|------------------------(0-0-0-0)---------------(0-0)---(0-0-0-0)|

F|-----------------------------------------------------------------|
C|-----------------------------------------------------------------|
G|---------------------------------4---4---4---4-4-4---4---4-------|
C|-0-0-----0-0-----0-0-----0-0-0-0---------------------------/-11-\|
B|--------------------------------(0)-(0)-(0)-(0-0-0)-(0)-(0-/12\-)|

0:52
F|-----------------------------------------------------------------|
C|-----------------------------------------------------------------|
G|---------------------------------0-0-0-0-0-0-0-0---0-0-0-0---0---|
C|-4-4-4-4-4-4-4-4---4-4-4---4-4-4---------------------------------|

F|-----------------------------------------------------------------|
C|-----------------------------------------------------------------|
G|-0-0-0-0-0-0-0-0-0-0-0-0-0-0-0-0---------------------------------|
C|---------------------------------6-6-6-6-6-6-6-6-6-6-6-6-2-2-2-2-|

F|-----------------------------------------------------------------|
C|-----------------------------------------------------------------|
G|---------------------------------5-5-5-5-5-5-5-5-5-5-5-5-5-5-5-5-|
C|-4-4-4-4-4-4-4-4---4-4-4---4-4-4---------------------------------|

F|-----------------------------------------------------------------|
C|-----------------------------------------------------------------|
G|-0-0-0-0-0-0-0-0-0-0-0-0-0-0-0-0---------------------------------|
C|---------------------------------6-6-6-6-6-6-6-6-2-\-------------|

1:12
F|-----------------------------------------------------------------|
C|-----------------------------------------------------------------|
G|---------------------------------0-----------------------4-------|
C|-4-----------------------------------------------2---------------|
B|--------------------------------------------------------(0)------|

1:17
F|-----------------------------------------------------------------|
C|-----------------------------------------------------------------|
G|-9-9-9-9---9-9-9---9-9-9---9-9-----5-5-5---5-5-5---7-7-7---7-7---|
C|-----------------------------------------------------------------|

F|-----------------------------------------------------------------|
C|---------------------------------------------------------6h7p6---|
G|-9-9-9-9---9-9-9---9-9-9---9-9-----5-5-5---5-5-----5-5-5-------7-|
C|-----------------------------------------------------------------|

1:27
F|-----------------------------------------------------------------|
C|-----------------------------------------------------------------|
G|---------------------------------------------------0-0-0---------|
C|-4-4-4-4-4-4-4-4---4-4-4---4-4-4-0-0-0-0-0-0-0-0---------6h7p6-2-|

F|-----------------------------------------------------------------|
C|-----------------------------------------------------------------|
G|---------------------------------0-0-0-0-0-0-0-0-----------------|
C|-4-4-4-4-4-4-4-4---4-4-4---4-4-4-------------------2-2-2-2-2-2-2-|

1:37
F|-----------------------------------------------------------------|
C|-----------------------------------------------------------------|
G|-------------------------4-4-4-4-----------------4-4-----4-4-4-4-|
C|-0-0-----0-0-----2-2-------------4-4-----4-4---------------------|
B|------------------------(0-0-0-0)---------------(0-0)---(0-0-0-0)|

F|-----------------------------------------------------------------|
C|-----------------------------------------------------------------|
G|---------------------------------4---4---4---4-4-4---------------|
C|-0-0-----0-0-----0-0-----0-0-0-0---------------------------------|
B|--------------------------------(0)-(0)-(0)-(0-0)----------------|

1:47
F|-----------------------------------------------------------------|
C|-----------------------------------------------------------------|
G|---------------------------------0-0-0-0-0-0-0-0---0-0-0-0---0---|
C|-4-4-4-4-4-4-4-4---4-4-4---4-4-4---------------------------------|

F|-----------------------------------------------------------------|
C|-----------------------------------------------------------------|
G|-0-0-0-0-0-0-0-0-0-0-0-0-0-0-0-0---------------------------------|
C|---------------------------------6-6-6-6-6-6-6-6-6-6-6-6-2-2-2-2-|

F|-----------------------------------------------------------------|
C|-----------------------------------------------------------------|
G|---------------------------------5-5-5-5-5-5-5-5-5-5-5-5-5-5-5-5-|
C|-4-4-4-4-4-4-4-4---4-4-4---4-4-4---------------------------------|

F|-----------------------------------------------------------------|
C|-----------------------------------------------------------------|
G|-0-0-0-0-0-0-0-0-0-0-0-0-0-0-0-0---------------------------------|
C|---------------------------------6-6-6-6-6-6-6-6-6-------2-------|

2:08
F|-----------------------------------------------------------------|
C|-----------------------------------------------------------------|
G|---0-------0-------0---------------0-------0-------0-------------|
C|-4---4-2-4---4-2-4---4-2-2-2-2-2-4---4-2-4---4-2-4---4-2-2-3-----|

F|-----------------------------------------------------------------|
C|-----------------------------------------------------------------|
G|---0-------0-------0---------------0-------0-------0-------0-----|
C|-4---4-2-4---4-2-4---4-2-2-2-2-2-4---4-2-4---4-2-4---4-2-4---4-2-|

2:18
F|------------------------------------------------------------------|
C|o-----------------------------------------------------------------|
G|o-----------------------------------------------------------------|
C|--4-4-4-4-4-4-4-4-6-6-6-6-7-7-7-7-3-3-3-3-3-3-3-3-6-6-6-6-6-7-7-7-|

F|------------------------------------------------------------------|
C|-----------------------------------------------------------------o|
G|-------------------------------------------------4-4-4-4---------o|
C|-2-2-2-2-2-2-2-2-6-6-6-6-7-7-7-7-0-0-0-0-0-0-0-0---------3-3-3-3--|
B|------------------------------------------------(0-0-0-0)---------|

Rest

2:41
F|-----------------------------------------------------------------|
C|-----------------------------------------------------------------|
G|---------------------------------5-5-5-5-5-5-5-5-5-5-5-5-5-5-4-2-|
C|-4-4-4-4-4-4-4-4-4-4-4-4-4-4-4-4---------------------------------|

F|-----------------------------------------------------------------|
C|-----------------------------------------------------------------|
G|-0-0-0-0-0-0-0-0-0-0-0-0-0-0-0-0---------------------------------|
C|---------------------------------6-6-6-6-6-6-6-6-6-6-6-6-6-7-6-2-|

F|-----------------------------------------------------------------|
C|-----------------------------------------------------------------|
G|---------------------------------5-5-5-5-5-5-5-5-5-5-5-5-5-5-4-2-|
C|-4-4-4-4-4-4-4-4-4-4-4-4-4-4-4-4---------------------------------|

F|-----------------------------------------------------------------|
C|-----------------------------------------------------------------|
G|-0-0-0-0-0-0-0-0-0-0-0-0-0-0-0-0---------------------------------|
C|---------------------------------6-6-6-6-6-6-6-6-6-6-6-6-6-------|

3:02
F|-----------------------------------------------------------------|
C|-----------------------------------------------------------------|
G|---------------------------------5-5-5-5-5-5-5-5-5-5-5-5-5-5-4-2-|
C|-4-4-4-4-4-4-4-4-4-4-4-4-4-4-4-4---------------------------------|

F|-----------------------------------------------------------------|
C|-----------------------------------------------------------------|
G|-0-0-0-0-0-0-0-0-0-0-0-0-0-0-0-0---------------------------------|
C|---------------------------------6-6-6-6-6-6-6-6-6-6-6-6-6-7-6-2-|

F|-----------------------------------------------------------------|
C|-----------------------------------------------------------------|
G|---------------------------------5-5-5-5-5-5-5-5-5-5-5-5-5-5-4-2-|
C|-4-4-4-4-4-4-4-4-4-4-4-4-4-4-4-4---------------------------------|

F|-----------------------------------------------------------------|
C|-----------------------------------------------------------------|
G|-0-0-0-0-0-0-0-0-0-0-0-0-0-0-0-0---------------------------------|
C|---------------------------------6-6-6-6-6-6-6-6-6-------2-------|

F|-------------------------------------------------------------------|
C|o-----------------------------------------------------------------o|
G|o---0-------0-------0---------------0-------0-------0-------------o|
C|--4---4-2-4---4-2-4---4-2-2-2-2-2-4---4-2-4---4-2-4---4-2-2-3------|
Tabbed by Dave Vucko
Suggest correction
Give kudos to tab author, rate the tab!
1 2 3 4 5
comments
print report bad tab
5 comments total. Showing first comments.
0 reply
Robert2511 321 Sep 08, 2014 02:57 PM

Just wondering, the notes in brackets on the B string are just a different way of playing as a don't have a 5 string but would like to learn this?

+1 reply
Robert2511 321 Sep 09, 2014 12:28 PM

Ah I get you now, well thanks for doing the whole album, hopefully I'll be able to learn it all eventually

guest
You may want to rate the tab now too:
select rating
Wanna post a correction for this tab? Suggest correction