Oops, an error
Loading. Please wait.

Wretched And Divine Tab

version 1
version 1

Intro

  • Chorus Melody for Wretched And Divine (Based off Jake Pitts Guitar Lesson).

Whole song

Interactive

25 views 3 this week
no commentswrite comment
1 2 3 4 5
3 more votes to show rating
add to favorites
launch autoscroll
font size
0
reset
how to read this tab
guitar tuner
Autoscroll
slow
fast
+/-
esc
set tempo
stop
Help us to improve Ultimate-Guitar.com Take our survey!
×
Author
Difficulty
Tuning
novice
D A D G B E
About this tab version
Chorus Melody for Wretched And Divine (Based off Jake Pitts Guitar Lesson). Was this info helpful? Yes No
Gtr I  (D A D G B E) - 'Guitar I'
Gtr II (D A D G B E) - 'Guitar II'


[Chorus] GTR I
                                                                   (x2)
E|---------------------------------|-----------------------7----------|
B|---------8-------------10--------|---------8------------------------|
G|-7-9-9-9---9-9-9-7-9-9----9-9-9-9|-7-9-9-9---9-9-9-7-9-9---9-9-9-9--|
D|---------------------------------|----------------------------------|
A|---------------------------------|----------------------------------|
D|---------------------------------|----------------------------------|

E|-------------------------------|------------------------------------|
B|---------8-------------10------|-10~-8-7~---------------------------|
G|-7-9-9-9---9-9-9-7-9-9----9-9-9|---------7~-------------------------|
D|-------------------------------|------------------------------------|
A|-------------------------------|------------------------------------|
D|-------------------------------|------------------------------------|

[Chorus] GTR II

E|------------------------------------|------------------------------------------|
B|------------------------------------|------------------------------------------|
G|------------------------------------|-5-5-5-5-5--5-5-5-5-5--5-5-5-5--5-5-5-5---|
D|-2-2-2-2--2-2-2-2--2-2-2-2--2-2-2-2-|-5-5-5-5-5--5-5-5-5-5--5-5-5-5--5-5-5-5---|
A|-2-2-2-2--2-2-2-2--2-2-2-2--2-2-2-2-|-3-3-3-3-3--3-3-3-3-3--3-3-3-3--3-3-3-3---|
D|-2-2-2-2--2-2-2-2--2-2-2-2--2-2-2-2-|------------------------------------------|

E|-------------------------------------|--------------------------------------|
B|-------------------------------------|--------------------------------------|
G|-------------------------------------|--------------------------------------|
D|--5-5-5-5--5-5-5-5--5-5-5-5--5-5-5-5-|-7-7-7-7--7-7-7-7--7-7-7-7--7-7-7-7---|
A|--5-5-5-5--5-5-5-5--5-5-5-5--5-5-5-5-|-5-5-5-5--5-5-5-5--5-5-5-5--5-5-5-5---|
D|--5-5-5-5--5-5-5-5--5-5-5-5--5-5-5-5-|-4-4-4-4--4-4-4-4--4-4-4-4--4-4-4-4---|

E|------------------------------------|------------------------------------------|
B|------------------------------------|------------------------------------------|
G|------------------------------------|-5-5-5-5-5--5-5-5-5-5--5-5-5-5--5-5-5-5---|
D|-2-2-2-2--2-2-2-2--2-2-2-2--2-2-2-2-|-5-5-5-5-5--5-5-5-5-5--5-5-5-5--5-5-5-5---|
A|-2-2-2-2--2-2-2-2--2-2-2-2--2-2-2-2-|-3-3-3-3-3--3-3-3-3-3--3-3-3-3--3-3-3-3---|
D|-2-2-2-2--2-2-2-2--2-2-2-2--2-2-2-2-|------------------------------------------|

E|-------------------------------------|---------------------|
B|-------------------------------------|---------------------|
G|-------------------------------------|---------------------|
D|--5-5-5-5--5-5-5-5--5-5-5-5--5-5-5-5-|-7-7-7-7--7-7-7-7--7-|
A|--5-5-5-5--5-5-5-5--5-5-5-5--5-5-5-5-|-5-5-5-5--5-5-5-5--5-|
D|--5-5-5-5--5-5-5-5--5-5-5-5--5-5-5-5-|-4-4-4-4--4-4-4-4--4-|

tab is based off Jake Pitts lesson 
(https://youtu.be/2x8IvcqUL4Y?t=6m7s)


************************************

| ~  Vibrato

************************************
Suggest correction
Give kudos to tab author, rate the tab!
1 2 3 4 5
comments
print report bad tab
guest
You may want to rate the tab now too:
select rating
Wanna post a correction for this tab? Suggest correction