Oops, an error
Loading. Please wait.

Wretched And Divine tab

version 2
version 2

Whole song

Interactive

4,327 views 6 this week
no commentswrite comment
1 2 3 4 5
2 more votes to show rating
add to favorites
×
Save as Personal and add changes to this tab that will be seen only by you. Learn more ›
×
You can save this tab as Personal to edit and correct it or add notes. All changes will be seen only by you. Learn more »
launch autoscroll
font size
0
reset
how to read this tab
guitar tuner
edit
Autoscroll
slow
fast
+/-
esc
set tempo
stop
----------------------------------------------------------------------------
                          Wretched and Divine
                           Black Veil Brides
----------------------------------------------------------------------------

This was a suggested song. With it being the album title song, I knew it was going 
to be good. Incredible intro riff and a very challenging guitar solo. Enjoy!

Username: dkm817 (same on X box live)
Youtube Cover: http://www.youtube.com/watch?v=o0KwWDWXFCM
Email: guitardrums@rockfan.com

Guitar 1 Rhythmic (D A D G B E)
Guitar 2 Lead     (D A D G B E)
Guitar 3 Lead     (D A D G B E)

NOTE: This was exported off of guitar pro.


Guitar 1

     W                   H        Q    Q       W                 
E||-------------------|---------------------|-------------------|
B||-------------------|---------------------|-------------------|
G||-------------------|--5--------7----4----|-------------------|
D||--2----------------|--5--------7----4----|--2----------------|
A||--2----------------|--3--------5----2----|--2----------------|
D||--2----------------|---------------------|--2----------------|


                          PM PM PM   PM PM     PM PM PM   PM PM    
  H        Q    Q       S S  S  S  S S  S  S S S  S  S  S S  S  S  
---------------------|--------------------------------------------|
---------------------|--------------------------------------------|
--5--------7----4----|--------------------------------------------|
--5--------7----4----|----2--2--2--2-2--2--2---2--2--2--2-2--2--2-|
--3--------5----2----|----2--2--2--2-2--2--2---2--2--2--2-2--2--2-|
---------------------|----2--2--2--2-2--2--2---2--2--2--2-2--2--2-|


    PM PM PM   PM PM     PM PM PM          
  S S  S  S  S S  S  S S S  S  S  S S S S  
------------------------------------------|
------------------------------------------|
----5--5--5--5-5--5--5---7--7--7----------|
----5--5--5--5-5--5--5---7--7--7--4-5-4---|
----3--3--3--3-3--3--3---5--5--5--------5-|
------------------------------------------|


    PM PM PM   PM PM     PM PM PM   PM PM    
  S S  S  S  S S  S  S S S  S  S  S S  S  S  
--------------------------------------------|
--------------------------------------------|
--------------------------------------------|
----2--2--2--2-2--2--2---2--2--2--2-2--2--2-|
----2--2--2--2-2--2--2---2--2--2--2-2--2--2-|
----2--2--2--2-2--2--2---2--2--2--2-2--2--2-|


    PM PM PM   PM PM     PM PM PM          
  S S  S  S  S S  S  S S S  S  S  S S S S  
------------------------------------------|
------------------------------------------|
----5--5--5--5-5--5--5---7--7--7----------|
----5--5--5--5-5--5--5---7--7--7----------|
----3--3--3--3-3--3--3---5--5--5--0-2-0---|
----------------------------------------4-|


            PM PM             PM PM                PM PM     PM PM PM          
  S S S S S S  S  S S S S S S S  S  S    S S S S S S  S  S S S  S  S  S S S S  
--------------------------------------|---------------------------------------|
--------------------------------------|---------------------------------------|
--------------------------------------|----------5-5--5--5---7--7--7----------|
----------2-2--2--2---------2-2--2--2-|----------5-5--5--5---7--7--7--4-5-4---|
----------2-2--2--2---------2-2--2--2-|----------3-3--3--3---5--5--5--------5-|
----------2-2--2--2---------2-2--2--2-|---------------------------------------|


  PM PM PM PM           PM PM PM          
  S  S  S  S  S S S S S S  S  S  S S S S  
-----------------------------------------|
-----------------------------------------|
-----------------------------------------|
--2--2--2--2------------2--2--2----------|
--2--2--2--2------------2--2--2----------|
--2--2--2--2------------2--2--2----------|


  PM PM PM PM           PM PM PM          
  S  S  S  S  S S S S S S  S  S  S S S S  
-----------------------------------------|
-----------------------------------------|
--5--5--5--5------------7--7--7----------|
--5--5--5--5------------7--7--7----------|
--3--3--3--3------------5--5--5--0-2-0---|
---------------------------------------4-|


  PM PM PM PM   PM PM     PM PM PM   PM PM    
  S  S  S  S  S S  S  S S S  S  S  S S  S  S  
---------------------------------------------|
---------------------------------------------|
---------------------------------------------|
--2--2--2--2--2-2--2--2---2--2--2--2-2--2--2-|
--2--2--2--2--2-2--2--2---2--2--2--2-2--2--2-|
--2--2--2--2--2-2--2--2---2--2--2--2-2--2--2-|


  PM PM PM PM   PM PM     PM PM PM          
  S  S  S  S  S S  S  S S S  S  S  S S S S  
-------------------------------------------|
-------------------------------------------|
--5--5--5--5--5-5--5--5---7--7--7----------|
--5--5--5--5--5-5--5--5---7--7--7--4-5-4---|
--3--3--3--3--3-3--3--3---5--5--5--------5-|
-------------------------------------------|


  PM PM PM PM   PM PM     PM PM PM   PM PM    
  S  S  S  S  S S  S  S S S  S  S  S S  S  S  
---------------------------------------------|
---------------------------------------------|
---------------------------------------------|
--2--2--2--2--2-2--2--2---2--2--2--2-2--2--2-|
--2--2--2--2--2-2--2--2---2--2--2--2-2--2--2-|
--2--2--2--2--2-2--2--2---2--2--2--2-2--2--2-|


  PM PM PM PM   PM PM     PM PM PM                               
  S  S  S  S  S S  S  S S S  S  S  S S S S    H        H         
-------------------------------------------|--------------------|
-------------------------------------------|--------------------|
--5--5--5--5--5-5--5--5---7--7--7----------|--5--------7--------|
--5--5--5--5--5-5--5--5---7--7--7----------|--x--------x--------|
--3--3--3--3--3-3--3--3---5--5--5--0-2-0---|--3--------5--------|
-----------------------------------------4-|--------------------|


  H        H           W                   W                   S S S S S S S S  
--------------------|-------------------|-------------------|------------------|
--------------------|-------------------|-------------------|------------------|
--9--------4--------|--5----------------|--4----------------|--4-4-4-4-4-4-4-4-|
--x--------x--------|--x----------------|--x----------------|--x-x-x-x-x-x-x-x-|
--7--------2--------|--3----------------|--2----------------|--2-2-2-2-2-2-2-2-|
--------------------|-------------------|-------------------|------------------|


  S S S S S S S S S S S S S S S S    S S S S S S S S S S S S S S S S  
----------------------------------|----------------------------------|
----------------------------------|----------------------------------|
----------------------------------|--5-5-5-5-5-5-5-5-5-5-5-5-5-5-5-5-|
--2-2-2-2-2-2-2-2-2-2-2-2-2-2-2-2-|--5-5-5-5-5-5-5-5-5-5-5-5-5-5-5-5-|
--2-2-2-2-2-2-2-2-2-2-2-2-2-2-2-2-|--3-3-3-3-3-3-3-3-3-3-3-3-3-3-3-3-|
--2-2-2-2-2-2-2-2-2-2-2-2-2-2-2-2-|----------------------------------|


  S S S S S S S S S S S S S S S S    S S S S S S S S S S S S S S S S  
----------------------------------|----------------------------------|
----------------------------------|----------------------------------|
----------------------------------|----------------------------------|
--5-5-5-5-5-5-5-5-5-5-5-5-5-5-5-5-|--7-7-7-7-7-7-7-7-7-7-7-7-7-7-7-7-|
--5-5-5-5-5-5-5-5-5-5-5-5-5-5-5-5-|--5-5-5-5-5-5-5-5-5-5-5-5-5-5-5-5-|
--5-5-5-5-5-5-5-5-5-5-5-5-5-5-5-5-|--4-4-4-4-4-4-4-4-4-4-4-4-4-4-4-4-|


  S S S S S S S S S S S S S S S S    S S S S S S S S S S S S S S S S  
----------------------------------|----------------------------------|
----------------------------------|----------------------------------|
----------------------------------|--5-5-5-5-5-5-5-5-5-5-5-5-5-5-5-5-|
--2-2-2-2-2-2-2-2-2-2-2-2-2-2-2-2-|--5-5-5-5-5-5-5-5-5-5-5-5-5-5-5-5-|
--2-2-2-2-2-2-2-2-2-2-2-2-2-2-2-2-|--3-3-3-3-3-3-3-3-3-3-3-3-3-3-3-3-|
--2-2-2-2-2-2-2-2-2-2-2-2-2-2-2-2-|----------------------------------|


  S S S S S S S S S S S S S S S S    S S S S S S S S E  E  E  E   
----------------------------------|------------------------------|
----------------------------------|------------------------------|
----------------------------------|------------------------------|
--5-5-5-5-5-5-5-5-5-5-5-5-5-5-5-5-|--7-7-7-7-7-7-7-7-7-----------|
--5-5-5-5-5-5-5-5-5-5-5-5-5-5-5-5-|--5-5-5-5-5-5-5-5-5-----------|
--5-5-5-5-5-5-5-5-5-5-5-5-5-5-5-5-|--4-4-4-4-4-4-4-4-4-----------|


  W                   H        Q    Q                             
-------------------|---------------------|-------|-------|-------|
-------------------|---------------------|-------|-------|-------|
-------------------|--5--------7----4----|-------|-------|-------|
--2----------------|--5--------7----4----|-------|-------|-------|
--2----------------|--3--------5----2----|-------|-------|-------|
--2----------------|---------------------|-------|-------|-------|


                    PM PM PM          
  S S S S S S S S S S  S  S  S S S S  
-------------------------------------|
-------------------------------------|
--------------------7--7--7----------|
--------------------7--7--7----------|
--------------------5--5--5--0-2-0---|
-----------------------------------4-|


  PM PM PM PM   PM PM     PM PM PM   PM PM    
  S  S  S  S  S S  S  S S S  S  S  S S  S  S  
---------------------------------------------|
---------------------------------------------|
---------------------------------------------|
--2--2--2--2--2-2--2--2---2--2--2--2-2--2--2-|
--2--2--2--2--2-2--2--2---2--2--2--2-2--2--2-|
--2--2--2--2--2-2--2--2---2--2--2--2-2--2--2-|


  PM PM PM PM   PM PM     PM PM PM          
  S  S  S  S  S S  S  S S S  S  S  S S S S  
-------------------------------------------|
-------------------------------------------|
--5--5--5--5--5-5--5--5---7--7--7----------|
--5--5--5--5--5-5--5--5---7--7--7--4-5-4---|
--3--3--3--3--3-3--3--3---5--5--5--------5-|
-------------------------------------------|


  PM PM PM PM   PM PM     PM PM PM   PM PM    
  S  S  S  S  S S  S  S S S  S  S  S S  S  S  
---------------------------------------------|
---------------------------------------------|
---------------------------------------------|
--2--2--2--2--2-2--2--2---2--2--2--2-2--2--2-|
--2--2--2--2--2-2--2--2---2--2--2--2-2--2--2-|
--2--2--2--2--2-2--2--2---2--2--2--2-2--2--2-|


  PM PM PM PM   PM PM     PM PM PM                               
  S  S  S  S  S S  S  S S S  S  S  S S S S    H        H         
-------------------------------------------|--------------------|
-------------------------------------------|--------------------|
--5--5--5--5--5-5--5--5---7--7--7----------|--5--------7--------|
--5--5--5--5--5-5--5--5---7--7--7----------|--x--------x--------|
--3--3--3--3--3-3--3--3---5--5--5--0-2-0---|--3--------5--------|
-----------------------------------------4-|--------------------|


  H        H           W                   H        S S S S S S S S  
--------------------|-------------------|---------------------------|
--------------------|-------------------|---------------------------|
--9--------4--------|--5----------------|--4--------4-4-4-4-4-4-4-4-|
--x--------x--------|--x----------------|--x--------x-x-x-x-x-x-x-x-|
--7--------2--------|--3----------------|--2--------2-2-2-2-2-2-2-2-|
--------------------|-------------------|---------------------------|


  S S S S S S S S S S S S S S S S    S S S S S S S S S S S S S S S S  
----------------------------------|----------------------------------|
----------------------------------|----------------------------------|
----------------------------------|--5-5-5-5-5-5-5-5-5-5-5-5-5-5-5-5-|
--2-2-2-2-2-2-2-2-2-2-2-2-2-2-2-2-|--5-5-5-5-5-5-5-5-5-5-5-5-5-5-5-5-|
--2-2-2-2-2-2-2-2-2-2-2-2-2-2-2-2-|--3-3-3-3-3-3-3-3-3-3-3-3-3-3-3-3-|
--2-2-2-2-2-2-2-2-2-2-2-2-2-2-2-2-|----------------------------------|


  S S S S S S S S S S S S S S S S    S S S S S S S S S S S S S S S S  
----------------------------------|----------------------------------|
----------------------------------|----------------------------------|
----------------------------------|----------------------------------|
--5-5-5-5-5-5-5-5-5-5-5-5-5-5-5-5-|--7-7-7-7-7-7-7-7-7-7-7-7-7-7-7-7-|
--5-5-5-5-5-5-5-5-5-5-5-5-5-5-5-5-|--5-5-5-5-5-5-5-5-5-5-5-5-5-5-5-5-|
--5-5-5-5-5-5-5-5-5-5-5-5-5-5-5-5-|--4-4-4-4-4-4-4-4-4-4-4-4-4-4-4-4-|


  S S S S S S S S S S S S S S S S    S S S S S S S S S S S S S S S S  
----------------------------------|----------------------------------|
----------------------------------|----------------------------------|
----------------------------------|--5-5-5-5-5-5-5-5-5-5-5-5-5-5-5-5-|
--2-2-2-2-2-2-2-2-2-2-2-2-2-2-2-2-|--5-5-5-5-5-5-5-5-5-5-5-5-5-5-5-5-|
--2-2-2-2-2-2-2-2-2-2-2-2-2-2-2-2-|--3-3-3-3-3-3-3-3-3-3-3-3-3-3-3-3-|
--2-2-2-2-2-2-2-2-2-2-2-2-2-2-2-2-|----------------------------------|


  S S S S S S S S S S S S S S S S    S S S S S S S S S S S S S S S S  
----------------------------------|----------------------------------|
----------------------------------|----------------------------------|
----------------------------------|----------------------------------|
--5-5-5-5-5-5-5-5-5-5-5-5-5-5-5-5-|--7-7-7-7-7-7-7-7-7-7-7-7-7-7-7-7-|
--5-5-5-5-5-5-5-5-5-5-5-5-5-5-5-5-|--5-5-5-5-5-5-5-5-5-5-5-5-5-5-5-5-|
--5-5-5-5-5-5-5-5-5-5-5-5-5-5-5-5-|--4-4-4-4-4-4-4-4-4-4-4-4-4-4-4-4-|


                          PM PM PM PM PM                            PM       
  S S S S S S S S S S S S S  S  T  T  S     S S S S S S S S S S S S S  E  S  
-----------------------------------------|----------------------------------|
-----------------------------------------|----------------------------------|
-----------------------------------------|----------------------------------|
--2-5-2-0-2-5-2-0-2-5-2-0-0--0--0--0--0--|--2-5-2-0-2-5-2-0-2-5-2-0-0--1--L-|
--2-5-2-0-2-5-2-0-2-5-2-0-0--0--0--0--0--|--2-5-2-0-2-5-2-0-2-5-2-0-0--1--L-|
--2-5-2-0-2-5-2-0-2-5-2-0-0--0--0--0--0--|--2-5-2-0-2-5-2-0-2-5-2-0-0--1--L-|


                          PM PM PM PM PM                            PM       
  S S S S S S S S S S S S S  S  T  T  S     S S S S S S S S S S S S S  E  S  
-----------------------------------------|----------------------------------|
-----------------------------------------|----------------------------------|
-----------------------------------------|----------------------------------|
--2-5-2-0-2-5-2-0-2-5-2-0-0--0--0--0--0--|--2-5-2-0-2-5-2-0-2-5-2-0-0--1--L-|
--2-5-2-0-2-5-2-0-2-5-2-0-0--0--0--0--0--|--2-5-2-0-2-5-2-0-2-5-2-0-0--1--L-|
--2-5-2-0-2-5-2-0-2-5-2-0-0--0--0--0--0--|--2-5-2-0-2-5-2-0-2-5-2-0-0--1--L-|


  S S S S S S S S S S S S S S S S    S S S S S S S S S S S S S S S S  
----------------------------------|----------------------------------|
----------------------------------|----------------------------------|
----------------------------------|----------------------------------|
----------------------------------|----------------------------------|
----------------------------------|----------------------------------|
--2-2-2-2-2-2-2-2-4-4-4-4-5-5-5-5-|--1-1-1-1-1-1-1-1-4-4-4-4-5-5-5-5-|


  S S S S S S S S S S S S S S S S    H        Q    Q     
----------------------------------|---------------------|
----------------------------------|---------------------|
----------------------------------|--5--------4----8----|
----------------------------------|--x--------x----x----|
----------------------------------|--3--------2----6----|
--0-0-0-0-0-0-0-0-4-4-4-4-5-5-5-5-|---------------------|


  S S S S S S S S S S S S S S S S    S S S S S S S S S S S S S S S S  
----------------------------------|----------------------------------|
----------------------------------|----------------------------------|
----------------------------------|----------------------------------|
----------------------------------|----------------------------------|
----------------------------------|----------------------------------|
--2-2-2-2-2-2-2-2-4-4-4-4-5-5-5-5-|--1-1-1-1-1-1-1-1-4-4-4-4-5-5-5-5-|


  S S S S S S S S S S S S S S S S    H        Q    Q     
----------------------------------|---------------------|
----------------------------------|---------------------|
----------------------------------|--5--------4----8----|
----------------------------------|--x--------x----x----|
----------------------------------|--3--------2----6----|
--0-0-0-0-0-0-0-0-4-4-4-4-5-5-5-5-|---------------------|


  PM PM PM PM PM PM PM PM PM PM                  
  S  S  T  T  S  S  S  T  T  S  S S S S S S S S  
------------------------------------------------|
------------------------------------------------|
------------------------------------------------|
--0--0--0--0--0--0--0--0--0--0------------------|
--0--0--0--0--0--0--0--0--0--0------------------|
--0--0--0--0--0--0--0--0--0--0------------------|


  S S S S S S S S S S S S S S S S    S S S S S S S S S S S S S S S S  
----------------------------------|----------------------------------|
----------------------------------|----------------------------------|
----------------------------------|--5-5-5-5-5-5-5-5-5-5-5-5-5-5-5-5-|
--2-2-2-2-2-2-2-2-2-2-2-2-2-2-2-2-|--5-5-5-5-5-5-5-5-5-5-5-5-5-5-5-5-|
--2-2-2-2-2-2-2-2-2-2-2-2-2-2-2-2-|--3-3-3-3-3-3-3-3-3-3-3-3-3-3-3-3-|
--2-2-2-2-2-2-2-2-2-2-2-2-2-2-2-2-|----------------------------------|


  S S S S S S S S S S S S S S S S    S S S S S S S S S S S S S S S S  
----------------------------------|----------------------------------|
----------------------------------|----------------------------------|
----------------------------------|----------------------------------|
--5-5-5-5-5-5-5-5-5-5-5-5-5-5-5-5-|--7-7-7-7-7-7-7-7-7-7-7-7-7-7-7-7-|
--5-5-5-5-5-5-5-5-5-5-5-5-5-5-5-5-|--5-5-5-5-5-5-5-5-5-5-5-5-5-5-5-5-|
--5-5-5-5-5-5-5-5-5-5-5-5-5-5-5-5-|--4-4-4-4-4-4-4-4-4-4-4-4-4-4-4-4-|


  S S S S S S S S S S S S S S S S    S S S S S S S S S S S S S S S S  
----------------------------------|----------------------------------|
----------------------------------|----------------------------------|
----------------------------------|--5-5-5-5-5-5-5-5-5-5-5-5-5-5-5-5-|
--2-2-2-2-2-2-2-2-2-2-2-2-2-2-2-2-|--5-5-5-5-5-5-5-5-5-5-5-5-5-5-5-5-|
--2-2-2-2-2-2-2-2-2-2-2-2-2-2-2-2-|--3-3-3-3-3-3-3-3-3-3-3-3-3-3-3-3-|
--2-2-2-2-2-2-2-2-2-2-2-2-2-2-2-2-|----------------------------------|


  S S S S S S S S S S S S S S S S    S S S S S S S S S S S S S S S S  
----------------------------------|----------------------------------|
----------------------------------|----------------------------------|
----------------------------------|----------------------------------|
--5-5-5-5-5-5-5-5-5-5-5-5-5-5-5-5-|--7-7-7-7-7-7-7-7-7-7-7-7---------|
--5-5-5-5-5-5-5-5-5-5-5-5-5-5-5-5-|--5-5-5-5-5-5-5-5-5-5-5-5---------|
--5-5-5-5-5-5-5-5-5-5-5-5-5-5-5-5-|--4-4-4-4-4-4-4-4-4-4-4-4---------|


  S S S S S S S S S S S S S S S S    S S S S S S S S S S S S S S S S  
----------------------------------|----------------------------------|
----------------------------------|----------------------------------|
----------------------------------|--5-5-5-5-5-5-5-5-5-5-5-5-5-5-5-5-|
--2-2-2-2-2-2-2-2-2-2-2-2-2-2-2-2-|--5-5-5-5-5-5-5-5-5-5-5-5-5-5-5-5-|
--2-2-2-2-2-2-2-2-2-2-2-2-2-2-2-2-|--3-3-3-3-3-3-3-3-3-3-3-3-3-3-3-3-|
--2-2-2-2-2-2-2-2-2-2-2-2-2-2-2-2-|----------------------------------|


  S S S S S S S S S S S S S S S S    S S S S S S S S S S S S S S S S  
----------------------------------|----------------------------------|
----------------------------------|----------------------------------|
----------------------------------|----------------------------------|
--5-5-5-5-5-5-5-5-5-5-5-5-5-5-5-5-|--7-7-7-7-7-7-7-7-7-7-7-7-7-7-7-7-|
--5-5-5-5-5-5-5-5-5-5-5-5-5-5-5-5-|--5-5-5-5-5-5-5-5-5-5-5-5-5-5-5-5-|
--5-5-5-5-5-5-5-5-5-5-5-5-5-5-5-5-|--4-4-4-4-4-4-4-4-4-4-4-4-4-4-4-4-|


  S S S S S S S S S S S S S S S S    S S S S S S S S S S S S S S S S  
----------------------------------|----------------------------------|
----------------------------------|----------------------------------|
----------------------------------|--5-5-5-5-5-5-5-5-5-5-5-5-5-5-5-5-|
--2-2-2-2-2-2-2-2-2-2-2-2-2-2-2-2-|--5-5-5-5-5-5-5-5-5-5-5-5-5-5-5-5-|
--2-2-2-2-2-2-2-2-2-2-2-2-2-2-2-2-|--3-3-3-3-3-3-3-3-3-3-3-3-3-3-3-3-|
--2-2-2-2-2-2-2-2-2-2-2-2-2-2-2-2-|----------------------------------|


  S S S S S S S S S S S S S S S S    S S S S S S S S S S S S S S S S  
----------------------------------|----------------------------------|
----------------------------------|----------------------------------|
----------------------------------|----------------------------------|
--5-5-5-5-5-5-5-5-5-5-5-5-5-5-5-5-|--7-7-7-7-7-7-7-7-7-7-7-7-7-7-7-7-|
--5-5-5-5-5-5-5-5-5-5-5-5-5-5-5-5-|--5-5-5-5-5-5-5-5-5-5-5-5-5-5-5-5-|
--5-5-5-5-5-5-5-5-5-5-5-5-5-5-5-5-|--4-4-4-4-4-4-4-4-4-4-4-4-4-4-4-4-|


                          PM PM PM PM PM                            PM       
  S S S S S S S S S S S S S  S  T  T  S     S S S S S S S S S S S S S  E  S  
-----------------------------------------|----------------------------------|
-----------------------------------------|----------------------------------|
-----------------------------------------|----------------------------------|
--2-5-2-0-2-5-2-0-2-5-2-0-0--0--0--0--0--|--2-5-2-0-2-5-2-0-2-5-2-0-0--1--L-|
--2-5-2-0-2-5-2-0-2-5-2-0-0--0--0--0--0--|--2-5-2-0-2-5-2-0-2-5-2-0-0--1--L-|
--2-5-2-0-2-5-2-0-2-5-2-0-0--0--0--0--0--|--2-5-2-0-2-5-2-0-2-5-2-0-0--1--L-|


                          PM PM PM PM PM                            PM        
  S S S S S S S S S S S S S  S  T  T  S     S S S S S S S S S S S S S  E  S   
-----------------------------------------|----------------------------------||
-----------------------------------------|----------------------------------||
-----------------------------------------|----------------------------------||
--2-5-2-0-2-5-2-0-2-5-2-0-0--0--0--0--0--|--2-5-2-0-2-5-2-0-2-5-2-0-0--1--L-||
--2-5-2-0-2-5-2-0-2-5-2-0-0--0--0--0--0--|--2-5-2-0-2-5-2-0-2-5-2-0-0--1--L-||
--2-5-2-0-2-5-2-0-2-5-2-0-0--0--0--0--0--|--2-5-2-0-2-5-2-0-2-5-2-0-0--1--L-||


Guitar 2


     H        Q    E   E      Q     Q     Q    Q       H        Q    E   E   
E||-----------------------|-------------------------|-----------------------|
B||-----------------------|-------------------------|-----------------------|
G||--9--------L----L--11--|--12----14----11----4----|--9--------L----L--11--|
D||--x-----------------x--|---x-----x-----x----x----|--x-----------------x--|
A||--7--------L----L---9--|--10----12-----9----2----|--7--------L----L---9--|
D||-----------------------|-------------------------|-----------------------|


   Q     Q     Q    Q       S  S  S  S S  S S  S S  S S  S S  S S  S  
-------------------------|-------------------------------------------|
-------------------------|----12-10-12-8-12-7-12---12-7-12-8-12---12-|
--12----14----11----4----|-----------------------9--------------9----|
---x-----x-----x----x----|-------------------------------------------|
--10----12-----9----2----|-------------------------------------------|
-------------------------|-------------------------------------------|


  S  S  S  S  S  S S  S S S S S  S S S  S  
------------------------------------------|
------------------------------------------|
----14-12-14-11-12-9-11-7-9---------------|
----------------------------9-7-10-9-7----|
---------------------------------------10-|
------------------------------------------|


  S  S  S  S S  S S  S S  S S  S S  S S  S  
-------------------------------------------|
----12-10-12-8-12-7-12---12-7-12-8-12---12-|
-----------------------9--------------9----|
-------------------------------------------|
-------------------------------------------|
-------------------------------------------|


  S  S  S  S S  S S S S S S S S S S S  
------------------------------3-2-0---|
----12-10-12-8-10-7-8-5-7-3-5-------3-|
--------------------------------------|
--------------------------------------|
--------------------------------------|
--------------------------------------|


  PM PM PM PM           PM PM PM          
  S  S  S  S  S S S S S S  S  S  S S S S  
-----------------------------------------|
-----------------------------------------|
-----------------------------------------|
--2--2--2--2------------2--2--2----------|
--2--2--2--2------------2--2--2----------|
--2--2--2--2------------2--2--2----------|


  PM PM PM PM           PM PM PM          
  S  S  S  S  S S S S S S  S  S  S S S S  
-----------------------------------------|
-----------------------------------------|
--5--5--5--5------------7--7--7--2-4-2---|
--5--5--5--5------------7--7--7--------4-|
--3--3--3--3------------5--5--5----------|
-----------------------------------------|


            PM PM             PM PM    
  S S S S S S  S  S S S S S S S  S  S  
--------------------------------------|
--------------------------------------|
--------------------------------------|
----------2-2--2--2---------2-2--2--2-|
----------2-2--2--2---------2-2--2--2-|
----------2-2--2--2---------2-2--2--2-|


            PM PM     PM PM PM PM PM PM PM  
  S S S S S S  S  S S S  S  S  S  S  S  S   
-------------------------------------------|
-------------------------------------------|
----------5-5--5--5---7--7--7--7--7--7--7--|
----------5-5--5--5---7--7--7--7--7--7--7--|
----------3-3--3--3---5--5--5--5--5--5--5--|
-------------------------------------------|


  PM PM PM PM   PM PM     PM PM PM   PM PM    
  S  S  S  S  S S  S  S S S  S  S  S S  S  S  
---------------------------------------------|
---------------------------------------------|
---------------------------------------------|
--2--2--2--2--2-2--2--2---2--2--2--2-2--2--2-|
--2--2--2--2--2-2--2--2---2--2--2--2-2--2--2-|
--2--2--2--2--2-2--2--2---2--2--2--2-2--2--2-|


  PM PM PM PM   PM PM     PM PM PM          
  S  S  S  S  S S  S  S S S  S  S  S S S S  
-------------------------------------------|
-------------------------------------------|
--5--5--5--5--5-5--5--5---7--7--7--2-4-2---|
--5--5--5--5--5-5--5--5---7--7--7--------4-|
--3--3--3--3--3-3--3--3---5--5--5----------|
-------------------------------------------|


  PM PM PM PM   PM PM     PM PM PM   PM PM    
  S  S  S  S  S S  S  S S S  S  S  S S  S  S  
---------------------------------------------|
---------------------------------------------|
---------------------------------------------|
--2--2--2--2--2-2--2--2---2--2--2--2-2--2--2-|
--2--2--2--2--2-2--2--2---2--2--2--2-2--2--2-|
--2--2--2--2--2-2--2--2---2--2--2--2-2--2--2-|


  PM PM PM PM   PM PM     PM PM PM PM PM PM PM  
  S  S  S  S  S S  S  S S S  S  S  S  S  S  S   
-----------------------------------------------|
-----------------------------------------------|
--5--5--5--5--5-5--5--5---7--7--7--7--7--7--7--|
--5--5--5--5--5-5--5--5---7--7--7--7--7--7--7--|
--3--3--3--3--3-3--3--3---5--5--5--5--5--5--5--|
-----------------------------------------------|


   S  S  S  S  S  S  S  S  S  S  S  S  S  S  S  S  
--------------------------------------------------|
--------------------------------------------13----|
--12----------12-14-12-14-16-14----------------14-|
-----12----12-------------------16-12-14-16-------|
--------14----------------------------------------|
--------------------------------------------------|


   S  S  S  S  S  S  S  S  S  S  S  S  S  S  S  S  
--------------------------------------------------|
-----------------------13-16-13----------12-13-12-|
--16-12----------12-16----------14----14----------|
--------12----12-------------------16-------------|
-----------14-------------------------------------|
--------------------------------------------------|


   S  S  S  S  S  S  S  S  S  S  S  S  S  S  S  S  
--15-12----------------------------12-14-15-14-12-|
--------13----------------------13----------------|
-----------12----------------12-------------------|
--------------14----------14----------------------|
-----------------15-14-15-------------------------|
--------------------------------------------------|


   S  S  S  S  S  S  S  S  S  S  S  S  S  S  S  S       
--14-11----------------------------11-14-15-14-12-|----|
--------12----------------------12----------------|----|
-----------11----------------11-------------------|----|
--------------13----------13----------------------|----|
-----------------14-13-14-------------------------|----|
--------------------------------------------------|----|


   S  S  S  S  S  S  S  S  S  S  S  S  S  S  S  S  
--15-12-12-12-15-12-12-12-15-12-12-15-12-12-12-12-|
--------------------------------------------------|
--------------------------------------------------|
--------------------------------------------------|
--------------------------------------------------|
--------------------------------------------------|


   S  S  S  S  S  S  S  S  S  S  S  S  S  S  S  S  
--15-12-12-12-15-12-12-12-15-12-12-15-12-12-12-12-|
--------------------------------------------------|
--------------------------------------------------|
--------------------------------------------------|
--------------------------------------------------|
--------------------------------------------------|


   S  S  S  S  S  S  S  S  S  S  S  S  S  S  S  S  
--15-12-12-12-15-12-12-12-15-12-12-15-12-15-12-12-|
--------------------------------------------------|
--------------------------------------------------|
--------------------------------------------------|
--------------------------------------------------|
--------------------------------------------------|


   S  S  S  S  S  S  S  S  S  S  S  S  S  S  S  S  
--------------------------------------------------|
--------------------------------------------------|
--14-14-14-14-12-12-11-11-11-11-11-11-11-11-11-11-|
---x--x--x--x--x--x--x--x--x--x--x--x--x--x--x--x-|
--12-12-12-12-10-10--9--9--9--9--9--9--9--9--9--9-|
--------------------------------------------------|


   S  S  S  S  S  S  S  S  S  S  S  S  S  S  S  S  
--15-12-12-12-15-12-12-12-15-12-12-15-12-12-12-12-|
--------------------------------------------------|
--------------------------------------------------|
--------------------------------------------------|
--------------------------------------------------|
--------------------------------------------------|


   S  S  S  S  S  S  S  S  S  S  S  S  S  S  S  S  
--15-12-12-12-15-12-12-12-15-12-12-15-12-12-12-12-|
--------------------------------------------------|
--------------------------------------------------|
--------------------------------------------------|
--------------------------------------------------|
--------------------------------------------------|


   S  S  S  S  S  S  S  S  S  S  S  S  S  S  S  S  
--15-12-12-12-15-12-12-12-15-12-12-15-12-15-12-12-|
--------------------------------------------------|
--------------------------------------------------|
--------------------------------------------------|
--------------------------------------------------|
--------------------------------------------------|


                                                                |-3-|       
   S  S  S  S  S  S  S  S  E  E  E  E     E    E   E  S S E  E  S S S S S   
---------------------------------------|-----------------------------------|
---------------------------------------|-----------------------------------|
--14-14-14-14-12-12-11-11-11-----------|-----/12--11--9---7--9--7-9-7------|
---x--x--x--x--x--x--x--x--x-----------|------------------------------9-L\-|
--12-12-12-12-10-10--9--9--9-----------|-----------------------------------|
---------------------------------------|-----------------------------------|


                               |--3--|              |--3--|  
  E    E   E  S S  T  T  T  T  S  S  S  T  T  T  T  S  S  S  
------------------------------------------------------------|
------------------------------------------------------------|
-----/12--11--9---14-12-11----11-12-14-16-14-12----12-14-16-|
---------------------------14-------------------16----------|
------------------------------------------------------------|
------------------------------------------------------------|


   W                   W                                     
--------------------|-------------------|-------------------|
--------------------|-------------------|-------------------|
--------------------|-------------------|-------------------|
--14----------------|--L----------------|-------------------|
--------------------|-------------------|-------------------|
--------------------|-------------------|-------------------|


                    PM PM PM PM PM PM PM  
  S S S S S S S S S S  S  S  S  S  S  S   
-----------------------------------------|
-----------------------------------------|
--------------------7--7--7--7--7--7--7--|
--------------------7--7--7--7--7--7--7--|
--------------------5--5--5--5--5--5--5--|
-----------------------------------------|


  PM PM PM PM   PM PM     PM PM PM   PM PM    
  S  S  S  S  S S  S  S S S  S  S  S S  S  S  
---------------------------------------------|
---------------------------------------------|
---------------------------------------------|
--2--2--2--2--2-2--2--2---2--2--2--2-2--2--2-|
--2--2--2--2--2-2--2--2---2--2--2--2-2--2--2-|
--2--2--2--2--2-2--2--2---2--2--2--2-2--2--2-|


  PM PM PM PM   PM PM     PM PM PM          
  S  S  S  S  S S  S  S S S  S  S  S S S S  
-------------------------------------------|
-------------------------------------------|
--5--5--5--5--5-5--5--5---7--7--7--2-4-2---|
--5--5--5--5--5-5--5--5---7--7--7--------4-|
--3--3--3--3--3-3--3--3---5--5--5----------|
-------------------------------------------|


  PM PM PM PM   PM PM     PM PM PM   PM PM    
  S  S  S  S  S S  S  S S S  S  S  S S  S  S  
---------------------------------------------|
---------------------------------------------|
---------------------------------------------|
--2--2--2--2--2-2--2--2---2--2--2--2-2--2--2-|
--2--2--2--2--2-2--2--2---2--2--2--2-2--2--2-|
--2--2--2--2--2-2--2--2---2--2--2--2-2--2--2-|


  PM PM PM PM   PM PM     PM PM PM PM PM PM PM  
  S  S  S  S  S S  S  S S S  S  S  S  S  S  S   
-----------------------------------------------|
-----------------------------------------------|
--5--5--5--5--5-5--5--5---7--7--7--7--7--7--7--|
--5--5--5--5--5-5--5--5---7--7--7--7--7--7--7--|
--3--3--3--3--3-3--3--3---5--5--5--5--5--5--5--|
-----------------------------------------------|


   S  S  S  S  S  S  S  S  S  S  S  S  S  S  S  S  
--------------------------------------------------|
--------------------------------------------13----|
--12----------12-14-12-14-16-14----------------14-|
-----12----12-------------------16-12-14-16-------|
--------14----------------------------------------|
--------------------------------------------------|


   S  S  S  S  S  S  S  S  S  S  S  S  S  S  S  S  
--------------------------------------------------|
-----------------------13-16-13----------12-13-12-|
--16-12----------12-16----------14----14----------|
--------12----12-------------------16-------------|
-----------14-------------------------------------|
--------------------------------------------------|


   S  S  S  S  S  S  S  S  S  S  S  S  S  S  S  S  
--15-12----------------------------12-14-15-14-12-|
--------13----------------------13----------------|
-----------12----------------12-------------------|
--------------14----------14----------------------|
-----------------15-14-15-------------------------|
--------------------------------------------------|


   S  S  S  S  S  S  S  S  H         
--14-11-------------------14--------|
--------12--------------------------|
-----------11-----------------------|
--------------13--------------------|
-----------------14-13-14-----------|
------------------------------------|


   S  S  S  S  S  S  S  S  S  S  S  S  S  S  S  S  
--15-12-12-12-15-12-12-12-15-12-12-15-12-12-12-12-|
--------------------------------------------------|
--------------------------------------------------|
--------------------------------------------------|
--------------------------------------------------|
--------------------------------------------------|


   S  S  S  S  S  S  S  S  S  S  S  S  S  S  S  S  
--15-12-12-12-15-12-12-12-15-12-12-15-12-12-12-12-|
--------------------------------------------------|
--------------------------------------------------|
--------------------------------------------------|
--------------------------------------------------|
--------------------------------------------------|


   S  S  S  S  S  S  S  S  S  S  S  S  S  S  S  S  
--15-12-12-12-15-12-12-12-15-12-12-15-12-15-12-12-|
--------------------------------------------------|
--------------------------------------------------|
--------------------------------------------------|
--------------------------------------------------|
--------------------------------------------------|


   S  S  S  S  S  S  S  S  S  S  S  S  S  S  S  S  
--------------------------------------------------|
--------------------------------------------------|
--14-14-14-14-12-12-11-11-11-11-11-11-11-11-11-11-|
---x--x--x--x--x--x--x--x--x--x--x--x--x--x--x--x-|
--12-12-12-12-10-10--9--9--9--9--9--9--9--9--9--9-|
--------------------------------------------------|


   S  S  S  S  S  S  S  S  S  S  S  S  S  S  S  S  
--15-12-12-12-15-12-12-12-15-12-12-15-12-12-12-12-|
--------------------------------------------------|
--------------------------------------------------|
--------------------------------------------------|
--------------------------------------------------|
--------------------------------------------------|


   S  S  S  S  S  S  S  S  S  S  S  S  S  S  S  S  
--15-12-12-12-15-12-12-12-15-12-12-15-12-12-12-12-|
--------------------------------------------------|
--------------------------------------------------|
--------------------------------------------------|
--------------------------------------------------|
--------------------------------------------------|


   S  S  S  S  S  S  S  S  S  S  S  S  S  S  S  S  
--15-12-12-12-15-12-12-12-15-12-12-15-12-15-12-12-|
--------------------------------------------------|
--------------------------------------------------|
--------------------------------------------------|
--------------------------------------------------|
--------------------------------------------------|


   S  S  S  S  S  S  S  S  S  S  S  S  S  S  S  S  
--------------------------------------------------|
--------------------------------------------------|
--14-14-14-14-12-12-11-11-11-11-11-11-11-11-11-11-|
---x--x--x--x--x--x--x--x--x--x--x--x--x--x--x--x-|
--12-12-12-12-10-10--9--9--9--9--9--9--9--9--9--9-|
--------------------------------------------------|


                          PM PM PM PM PM                            PM       
  S S S S S S S S S S S S S  S  T  T  S     S S S S S S S S S S S S S  E  S  
-----------------------------------------|----------------------------------|
-----------------------------------------|----------------------------------|
-----------------------------------------|----------------------------------|
--2-5-2-0-2-5-2-0-2-5-2-0-0--0--0--0--0--|--2-5-2-0-2-5-2-0-2-5-2-0-0--1--L-|
--2-5-2-0-2-5-2-0-2-5-2-0-0--0--0--0--0--|--2-5-2-0-2-5-2-0-2-5-2-0-0--1--L-|
--2-5-2-0-2-5-2-0-2-5-2-0-0--0--0--0--0--|--2-5-2-0-2-5-2-0-2-5-2-0-0--1--L-|


                          PM PM PM PM PM                            PM       
  S S S S S S S S S S S S S  S  T  T  S     S S S S S S S S S S S S S  E  S  
-----------------------------------------|----------------------------------|
-----------------------------------------|----------------------------------|
-----------------------------------------|----------------------------------|
--2-5-2-0-2-5-2-0-2-5-2-0-0--0--0--0--0--|--2-5-2-0-2-5-2-0-2-5-2-0-0--1--L-|
--2-5-2-0-2-5-2-0-2-5-2-0-0--0--0--0--0--|--2-5-2-0-2-5-2-0-2-5-2-0-0--1--L-|
--2-5-2-0-2-5-2-0-2-5-2-0-0--0--0--0--0--|--2-5-2-0-2-5-2-0-2-5-2-0-0--1--L-|


  S S S S S S S S S S S S S S S S    S S S S S S S S S S S S S S S S  
----------------------------------|----------------------------------|
----------------------------------|----------------------------------|
----------------------------------|----------------------------------|
----------------------------------|----------------------------------|
----------------------------------|----------------------------------|
--2-2-2-2-2-2-2-2-4-4-4-4-5-5-5-5-|--1-1-1-1-1-1-1-1-4-4-4-4-5-5-5-5-|


  S S S S S S S S S S S S S S S S    H        Q    Q     
----------------------------------|---------------------|
----------------------------------|---------------------|
----------------------------------|--5--------8----4----|
----------------------------------|--x--------x----x----|
----------------------------------|--3--------6----2----|
--0-0-0-0-0-0-0-0-4-4-4-4-5-5-5-5-|---------------------|


  S S S S S S S S S S S S S S S S    S S S S S S S S S S S S S S S S  
----------------------------------|----------------------------------|
----------------------------------|----------------------------------|
----------------------------------|----------------------------------|
----------------------------------|----------------------------------|
----------------------------------|----------------------------------|
--2-2-2-2-2-2-2-2-4-4-4-4-5-5-5-5-|--1-1-1-1-1-1-1-1-4-4-4-4-5-5-5-5-|


  S S S S S S S S S S S S S S S S    H        Q    Q     
----------------------------------|---------------------|
----------------------------------|---------------------|
----------------------------------|--5--------8----4----|
----------------------------------|--x--------x----x----|
----------------------------------|--3--------6----2----|
--0-0-0-0-0-0-0-0-4-4-4-4-5-5-5-5-|---------------------|


                  PM PM PM PM PM                                               
  S S S S S S S S S  S  T  T  S  S S S S     H         S  S  S  S  S  S  S  S  
-----------------------------------------|--15--------15-10-10-10-10-14-14-14-|
-----------------------------------------|------------------------------------|
-----------------------------------------|------------------------------------|
------------------0--0--0--0--0--0-------|------------------------------------|
------------------0--0--0--0--0--0-------|------------------------------------|
------------------0--0--0--0--0--0-------|------------------------------------|


   S S S S S  S  S  S  S  S  S  S  S  S  S  S   
--14-8-8-8-8-10-10-10-10-12-12-12-12-14-14-14s-|
-----------------------------------------------|
-----------------------------------------------|
-----------------------------------------------|
-----------------------------------------------|
-----------------------------------------------|


             |--3--|                    
   H         S  S  S  S  S  S  S  S  S  
--19--------14-15-14----14-------------|
---------------------15----15-13----13-|
---------------------------------16----|
---------------------------------------|
---------------------------------------|
---------------------------------------|


   T          T     T          T     T          T          T     T          T   
   T  T T  T  T  T  T  T T  T  T  T  T  T T  T  T  T T  T  T  T  T  T T  T  T  T
--------------------------------------------------------------------------------
--15-12-8-12-15-12-15-12-8-12-15-12-15-12-8-12-13-10-7-10-13-10-13-10-7-10-13-10
--------------------------------------------------------------------------------
--------------------------------------------------------------------------------
--------------------------------------------------------------------------------
--------------------------------------------------------------------------------


   |--3--|  |--3--|  |--3--|  |--3--|  |--3--|  |--3--|  |--3--|  |--3--|  
   S  S  S  S  S  S  S  S  S  S  S  S  S  S  S  S  S  S  S  S  S  S  S  S  
-----------------14-15-14----------------------------14-15-14-------------|
--------------17----------17----------------------17----------17----------|
-----------16----------------16----------------16----------------16-------|
-----16-17----------------------17-------16-17----------------------17----|
--19-------------------------------19-19-------------------------------19-|
--------------------------------------------------------------------------|


   |--3--|  |--3--|  |--3--|  |--3--|  |--3--|  |--3--|  |--3--|  |--3--|  
   S  S  S  S  S  S  S  S  S  S  S  S  S  S  S  S  S  S  S  S  S  S  S  S  
-----------------12-14-12----------------------------12-14-12-------------|
--------------15----------15----------------------15----------15----------|
-----------14----------------14----------------14----------------14-------|
-----14-16----------------------16-------14-16----------------------16----|
--17-------------------------------17-17-------------------------------17-|
--------------------------------------------------------------------------|


   T  T  T  T  T  T  T  T  T  T  T  T  T  T  T  T  T  T  T  T  T  T  T  T  T  T 
--------------------------------------------------------------------------------
--------------------------------------12-12-12-12-15-15-15-15-15-15-15-15-15-15-
--12-12-12-12-12-12-14-14-14-14-14-14-------------------------------------------
--------------------------------------------------------------------------------
--------------------------------------------------------------------------------
--------------------------------------------------------------------------------


   T  T  T  T  T  T  T  T  T  T  T  T  T  T  T  T  T  T  T  T  T  T  T  T  T  T 
--14-14-14-14-10-12-14-14-14-12-10-12-14-14-12-10-14-10-------------------------
--------------------------------------------------------12----------------------
-----------------------------------------------------------11----------11-12-14-
--------------------------------------------------------------12----12----------
-----------------------------------------------------------------14-------------
--------------------------------------------------------------------------------


   W                    S  S  S  S  S  S  S  S  S  S  S  S  S  S  S  S  
--19----------------|--15-12-12-12-15-12-12-12-15-12-12-15-12-12-12-12-|
--------------------|--------------------------------------------------|
--------------------|--------------------------------------------------|
--------------------|--------------------------------------------------|
--------------------|--------------------------------------------------|
--------------------|--------------------------------------------------|


   S  S  S  S  S  S  S  S  S  S  S  S  S  S  S  S  
--15-12-12-12-15-12-12-12-15-12-12-15-12-15-12-12-|
--------------------------------------------------|
--------------------------------------------------|
--------------------------------------------------|
--------------------------------------------------|
--------------------------------------------------|


   S  S  S  S  S  S  S  S  S  S  S  S  S  S  S  S  
--------------------------------------------------|
--------------------------------------------------|
--14-14-14-14-12-12-11-11-11-11-11-11-11-11-11-11-|
---x--x--x--x--x--x--x--x--x--x--x--x--x--x--x--x-|
--12-12-12-12-10-10--9--9--9--9--9--9--9--9--9--9-|
--------------------------------------------------|


   S  S  S  S  S  S  S  S  S  S  S  S  S  S  S  S  
--15-12-12-12-15-12-12-12-15-12-12-15-12-12-12-12-|
--------------------------------------------------|
--------------------------------------------------|
--------------------------------------------------|
--------------------------------------------------|
--------------------------------------------------|


   S  S  S  S  S  S  S  S  S  S  S  S  S  S  S  S  
--15-12-12-12-15-12-12-12-15-12-12-15-12-12-12-12-|
--------------------------------------------------|
--------------------------------------------------|
--------------------------------------------------|
--------------------------------------------------|
--------------------------------------------------|


   S  S  S  S  S  S  S  S  S  S  S  S  S  S  S  S  
--15-12-12-12-15-12-12-12-15-12-12-15-12-15-12-12-|
--------------------------------------------------|
--------------------------------------------------|
--------------------------------------------------|
--------------------------------------------------|
--------------------------------------------------|


   S  S  S  S  S  S  S  S  S  S  S  S  S  S  S  S  
--------------------------------------------------|
--------------------------------------------------|
--14-14-14-14-12-12-11-11-11-11-11-11-11-11-11-11-|
---x--x--x--x--x--x--x--x--x--x--x--x--x--x--x--x-|
--12-12-12-12-10-10--9--9--9--9--9--9--9--9--9--9-|
--------------------------------------------------|


                          PM PM PM PM PM                            PM       
  S S S S S S S S S S S S S  S  T  T  S     S S S S S S S S S S S S S  E  S  
-----------------------------------------|----------------------------------|
-----------------------------------------|----------------------------------|
-----------------------------------------|----------------------------------|
--2-5-2-0-2-5-2-0-2-5-2-0-0--0--0--0--0--|--2-5-2-0-2-5-2-0-2-5-2-0-0--1--L-|
--2-5-2-0-2-5-2-0-2-5-2-0-0--0--0--0--0--|--2-5-2-0-2-5-2-0-2-5-2-0-0--1--L-|
--2-5-2-0-2-5-2-0-2-5-2-0-0--0--0--0--0--|--2-5-2-0-2-5-2-0-2-5-2-0-0--1--L-|


                          PM PM PM PM PM                            PM        
  S S S S S S S S S S S S S  S  T  T  S     S S S S S S S S S S S S S  E  S   
-----------------------------------------|----------------------------------||
-----------------------------------------|----------------------------------||
-----------------------------------------|----------------------------------||
--2-5-2-0-2-5-2-0-2-5-2-0-0--0--0--0--0--|--2-5-2-0-2-5-2-0-2-5-2-0-0--1--L-||
--2-5-2-0-2-5-2-0-2-5-2-0-0--0--0--0--0--|--2-5-2-0-2-5-2-0-2-5-2-0-0--1--L-||
--2-5-2-0-2-5-2-0-2-5-2-0-0--0--0--0--0--|--2-5-2-0-2-5-2-0-2-5-2-0-0--1--L-||


Guitar 3


                     H        Q    E   E      Q     Q     Q    Q     
E||-------|-------|-----------------------|-------------------------|
B||-------|-------|--8--------L----L--10--|--12----13----10----7----|
G||-------|-------|--x-----------------x--|---x-----x-----x----x----|
D||-------|-------|--5--------L----L---7--|---9----10-----7----4----|
A||-------|-------|-----------------------|-------------------------|
D||-------|-------|-----------------------|-------------------------|


  S  S  S  S S  S S  S S  S S  S S  S S  S  
-------------------------------------------|
----12-10-12-8-12-7-12---12-7-12-8-12---12-|
-----------------------9--------------9----|
-------------------------------------------|
-------------------------------------------|
-------------------------------------------|


  S  S  S  S  S  S S  S S S S S S S S S  
--------------------------------7-5-3---|
----13-12-13-10-12-8-10-7-8-5-7-------7-|
----------------------------------------|
----------------------------------------|
----------------------------------------|
----------------------------------------|


  S  S  S  S S  S S  S S  S S  S S  S S  S  
-------------------------------------------|
----12-10-12-8-12-7-12---12-7-12-8-12---12-|
-----------------------9--------------9----|
-------------------------------------------|
-------------------------------------------|
-------------------------------------------|


  S  S  S  S  S  S  S  S S  S S S S S S S                                     
----------------------------------7-5-3---|----|----|----|----|----|----|----|
----15-13-15-12-13-10-12-8-10-7-8-------7-|----|----|----|----|----|----|----|
------------------------------------------|----|----|----|----|----|----|----|
------------------------------------------|----|----|----|----|----|----|----|
------------------------------------------|----|----|----|----|----|----|----|
------------------------------------------|----|----|----|----|----|----|----|


       S S  S S S  S S  S  S  S  S S  S  S  S  S  
----|--------------------------------------------|
----|--------------------------------------10----|
----|--9--------9-11-9-11-12-11---------------11-|
----|----9----9-----------------12-9-10-12-------|
----|------10------------------------------------|
----|--------------------------------------------|


   S S S  S S S  S  S  S  S  S  S  S S  S S  
--------------------------------------------|
-------------------10-12-10----------8-10-8-|
--12-9--------9-12----------11----11--------|
-------9----9------------------12-----------|
---------10---------------------------------|
--------------------------------------------|


   S S S S  S  S S  S  S S S S  S  S  S S  
--12-8-----------------------8-10-12-10-8-|
-------8-------------------8--------------|
---------9---------------9----------------|
-----------10---------10------------------|
--------------10-9-10---------------------|
------------------------------------------|


   S S S S S S S S S S S S  S  S  S S                                          
--11-7-------------------7-10-12-10-8-|----|----|----|----|----|----|----|----|
-------7---------------7--------------|----|----|----|----|----|----|----|----|
---------8-----------8----------------|----|----|----|----|----|----|----|----|
-----------9-------9------------------|----|----|----|----|----|----|----|----|
-------------9-8-9--------------------|----|----|----|----|----|----|----|----|
--------------------------------------|----|----|----|----|----|----|----|----|


                                 |--3--|        
       E    E   E   S S  E   E   S  S  S  S S   
----|------------------------------------------|
----|------------------------------------------|
----|-----/16--14--12---11--12--11-12-11-------|
----|------------------------------------14-L\-|
----|------------------------------------------|
----|------------------------------------------|


                                |--3--|              |--3--|  
  E    E   E   S S  T  T  T  T  S  S  S  T  T  T  T  S  S  S  
-------------------------------------------------------------|
-------------------------------------------------------------|
-----/16--14--12---17-16-14----14-16-17-19-17-16----16-17-19-|
----------------------------17-------------------19----------|
-------------------------------------------------------------|
-------------------------------------------------------------|


   W                   W                                               
--------------------|-------------------|----|----|----|----|----|----|
--17----------------|--L----------------|----|----|----|----|----|----|
--------------------|-------------------|----|----|----|----|----|----|
--------------------|-------------------|----|----|----|----|----|----|
--------------------|-------------------|----|----|----|----|----|----|
--------------------|-------------------|----|----|----|----|----|----|


  S S  S S S  S S  S  S  S  S S  S  S  S  S  
--------------------------------------------|
--------------------------------------10----|
--9--------9-11-9-11-12-11---------------11-|
----9----9-----------------12-9-10-12-------|
------10------------------------------------|
--------------------------------------------|


   S S S  S S S  S  S  S  S  S  S  S S  S S  
--------------------------------------------|
-------------------10-12-10----------8-10-8-|
--12-9--------9-12----------11----11--------|
-------9----9------------------12-----------|
---------10---------------------------------|
--------------------------------------------|


   S S S S  S  S S  S  S S S S  S  S  S S     S S S S S S S S  H              
--12-8-----------------------8-10-12-10-8-|--11-7-------------11--------|----|
-------8-------------------8--------------|-------7---------------------|----|
---------9---------------9----------------|---------8-------------------|----|
-----------10---------10------------------|-----------9-----------------|----|
--------------10-9-10---------------------|-------------9-8-9-----------|----|
------------------------------------------|-----------------------------|----|


Duration Legend
---------------
W - whole
H - half
Q - quarter
E - 8th
S - 16th
T - 32nd
X - 64th
. - note dotted
|-n-|  - n-tuplets


Tablature Legend
----------------
L - tied note
x - dead note
g - grace note
(n) - ghost note
> - accentuded note
NH - natural harmonic
AH - artificial harmonic
TH - tapped harmonic
SH - semi harmonic
PH - pitch harmonic
h - hammer on
p - pull off
b - bend
br - bendRelease
pb - preBend
pbr - preBendRelease
brb - bendReleaseBend
\n/ - tremolo bar dip
\n - tremolo bar dive
-/n - tremolo bar Release up
/n\ - tremolo bar inverted dip
/n - tremolo bar return
-\n - tremolo bar Release down
S - shift slide
s - legato slide
/ -  slide into from below or out of upwards
\ -  slide into from above or out of downwards
~ - vibrato
W - wide vibrato
tr - trill
TP - tremolo picking
T - tapping
S - slap
P - pop
< - fade in
^ - brush up
v - brush down


That is all! I hope this helped, and be sure to check out my cover if you are
having problems with the tab. Thanks, oh and one last thing... ROCK OUT!!!!

            
            
Suggest correction
Creating personal tab
Creating personal tab
You can edit any tab online and save it as your Personal.

You can edit, replace or remove any tab part or add personal notes – all changes will be seen only by you.

Personal tabs can be accessed anytime from any device, even offline.
Learn more »
Give kudos to tab author, rate the tab!
1 2 3 4 5
comments
print report bad tab
guest
You may want to rate the tab now too:
select rating
Wanna post a correction for this tab? Suggest correction