Oops, an error
Loading. Please wait.

Wretched And Divine Tab

version 3
version 3

Whole song

Interactive

79 views 1 this week
no commentswrite comment
1 2 3 4 5
3 more votes to show rating
add to favorites
launch autoscroll
font size
0
reset
how to read this tab
guitar tuner
Autoscroll
slow
fast
+/-
esc
set tempo
stop
Help us to improve Ultimate-Guitar.com Take our survey!
×
Author
Difficulty
Tuning
advanced
D A D G B E
About this tab version
Tabbed From Jake Pitts' Guitar Lesson on Youtube. Was this info helpful? Yes No
https://www.youtube.com/watch?v=2x8IvcqUL4Y

Note: Black Veil Brides play this song in Drop C# Live, but the recording is in Drop D. However, 
it is played the same way in both tunings. The lesson video is in Drop C#

[Intro Pt.1 Lead]

e|---------------------------------------------------------------------------|
B|---------------------------------------------------------------------------|
G|-9--11-12--14--11-7--------------------------------------------------------|
D|-x--x--x---x---x--x--------------------------------------------------------| Play Twice
A|-7--9--10--12--9--5--------------------------------------------------------|
D|---------------------------------------------------------------------------|

[Intro Pt.1 Rhythm]

e|---------------------------------------------------------------------------|
B|---------------------------------------------------------------------------|
G|-12--14--16-17--14--11-----------------------------------------------------|
D|-x---x---x--x---x---x------------------------------------------------------| Play Twice
A|-10--12--14-15--12--9------------------------------------------------------|
D|---------------------------------------------------------------------------|


[Intro Pt.2]

e|---------------------------------------------------------------------------|
B|-12-10-12-8-12-7-12---12-7-12-8-12---12------------------------------------|
G|--------------------9--------------9------14-12-14-11-12----11-------------|
D|---------------------------------------------------------14----12-14-/9-12-|
A|---------------------------------------------------------------------------|
D|---------------------------------------------------------------------------|

e|---------------------------------------------------------------------------------------|
B|------------12-10-12-8-12-7-12---12-7-12-8-12-----12-10-12-8-10----8----------8--------|
G|12-11-9------------------------9--------------9-----------------11---9-11-7-9---11-9-7-|
D|--------12b----------------------------------------------------------------------------|
A|---------------------------------------------------------------------------------------|
D|---------------------------------------------------------------------------------------|

[Verse]

e|---------------------------------------------------------------------------|
B|---------------------------------------------------------------------------|
G|---------------------------------------5-5-5-5--5--5-5-5--7-7-7------------|
D|-2-2-2-2--2--2-2-2--2-2-2-2--2--2-2-2--5-5-5-5--5--5-5-5--7-7-7-4h5p4p0----|
A|-2-2-2-2--2--2-2-2--2-2-2-2--2--2-2-2--3-3-3-3--3--3-3-3--5-5-5------------|
D|-2-2-2-2--2--2-2-2--2-2-2-2--2--2-2-2--------------------------------------|
  PM------     ---    -------     ---    -------     ---    -----

e|---------------------------------------------------------------------------|
B|---------------------------------------------------------------------------|
G|---------------------------------------------------------------------------|
D|-2-2-2-2--2--2-2-2--2-2-2-2--2--2-2-2--5-5-5-5--5--5-5-5-------------------|
A|-2-2-2-2--2--2-2-2--2-2-2-2--2--2-2-2--5-5-5-5--5--5-5-5-------------------|
D|-2-2-2-2--2--2-2-2--2-2-2-2--2--2-2-2--5-5-5-5--5--5-5-5--0-0-0-4h5p4p0----|
  PM------     ---    -------     ---    -------     ---    -----


[Pre-Chorus]

e|-------------------7s5---------8----7-----------7-8-11-7---------7-8-7-15--|
B|-8-------8-10-8-10-----7-----7---10---8-------8----------10-7-10-----------|
G|---9---9-----------------7s8------------9---9------------------------------|
D|-----9------------------------------------9--------------------------------|
A|---------------------------------------------------------------------------|
D|---------------------------------------------------------------------------|

e|-12----------------------------12-14-15-14-12-14-11----------------------------11-14-15-14-12-14b-|
B|----13----------------------13----------------------12----------------------12--------------------|
G|-------12----------------12----------------------------11----------------11-----------------------|
D|----------14----------14----------------------------------13----------13--------------------------|
A|-------------15-14-15----------------------------------------14-13-14-----------------------------|
D|--------------------------------------------------------------------------------------------------|


[Chorus Lead]

e|--------------------------------------------------------7--------------------|
B|---------8-------------10-----------------8-----------------------5s10-8-7---|
G|-7-9-9-9---9-9-9-7-9-9----9-9-9-9-7-9-9-9---9-9-9-7-9-9---9-9-9-9---------7b-|
D|-----------------------------------------------------------------------------| Play Twice
A|-----------------------------------------------------------------------------|
D|-----------------------------------------------------------------------------|

[Chorus Rhythm]


e|---------------------------------------------------------------------------|
B|-------------------------5s10-8-7------------------------------------------|
G|---------5------------------------7b---------------------------------------|
D|-2-------5-[x16]-5---------------------------------------------------------| Play Twice
A|-2-[x16]-3-------5-[x16]---------------------------------------------------|
D|-2---------------5---------------------------------------------------------|


[Post Chorus]

e|---------------------------------------------------------------------------|
B|--s12-10-8-7-8-7-8-7---13-12-10----10-12-13-15-12----12-13-15-12b----------|
G|---------------------9----------12----------------14-----------------------|
D|-2-------------------------------------------------------------------------|
A|-2-------------------------------------------------------------------------|
D|-2-------------------------------------------------------------------------|

[Breakdown]

e|---------------------------------------------------------------------------|
B|---------------------------------------------------------------------------|
G|---------------------------------------------------------------------------|
D|-2-5-2-0-2-5-2-0-2-5-2-0----------2-5-2-0-2-5-2-0-2-5-2-0-0-1--------------| Play Twice
A|-2-5-2-0-2-5-2-0-2-5-2-0-0-0-0-0--2-5-2-0-2-5-2-0-2-5-2-0-0-1--------------|
D|-2-5-2-0-2-5-2-0-2-5-2-0-0-0-0-0--2-5-2-0-2-5-2-0-2-5-2-0-0-1--------------|
                          PM------
[Breakdown Part 2]

e|---------------------------------------------------------------------------|
B|---------------------------------------------------------------------------|
G|---------------------------------------------------------------------------|
D|---------------------------------------------------------------------------|
A|---------------------------------------------------------------------------|
D|-2-2-2-2-2-2-2-2-4-4-4-4-5-5-5-5-1-1-1-1-1-1-1-1-4-4-4-4-5-5-5-5-----------|


e|---------------------------------------------------------------------------|
B|---------------------------------------------------------------------------|
G|---------------------------------9-8-11------------------------------------|
D|---------------------------------x-x-x-------------------------------------| Play Twice
A|---------------------------------7-6-9-------------------------------------|
D|-0-0-0-0-0-0-0-0-4-4-4-4-5-5-5-5-------------------------------------------|

[Pre-Solo]

e|---------------------------------------------------------------------------|
B|---------------------------------------------------------------------------|
G|---------------------------------------------------------------------------|
D|---------------------------------------------------------------------------|
A|---------------------------------------------------------------------------|
D|-0-0-0-0-0-0-0-0-----------------------------------------------------------|
  PM--------------

[Solo]

e|----------------------------------------------------------------------------s15b-|
B|-s17-17-17-17-17-12-12-12-12-15-15-15-15-10-10-10-12-12-12-13-13-13-15-15-15-----|
G|---------------------------------------------------------------------------------|
D|---------------------------------------------------------------------------------|
A|---------------------------------------------------------------------------------|
D|---------------------------------------------------------------------------------|

e|-14h15p14----14------------------------------------------------------------|
B|----------15----15-13s12h13-15-12-10-8-12-10-15-15-15-12-10-8-12-10-15-15--|
G|---------------------------------------------------------------------------|
D|---------------------------------------------------------------------------|
A|---------------------------------------------------------------------------|
D|---------------------------------------------------------------------------|
                              TAPPING----------------------------------------

e|------------------------------------------------------------------------------|
B|-15-12-10-8-12-10-15-13-10-8-7-8-10-13-13-13-10-8-7-8-10-13-13-10-8-7-8-10-13-|
G|------------------------------------------------------------------------------|
D|------------------------------------------------------------------------------|
A|------------------------------------------------------------------------------|
D|------------------------------------------------------------------------------|
  TAPPING----------------------------------------------------------------------

e|--------------12-14-15-14-12-------------------------12-14-15-14-12------------|
B|-------------------------------------------------------------------------------|
G|-----12-14-16----------------16-14-12-------12-14-16----------------16-14-12---|
D|-s14----------------------------------14-14---------------------------------14-|
A|-------------------------------------------------------------------------------|
D|-------------------------------------------------------------------------------|

e|-------------10-12-14-12-10-------------------------10-12-14-12-10-------------|
B|-------------------------------------------------------------------------------|
G|----11-12-14----------------14-12-11-------11-12-14----------------14-12-11----|
D|-12----------------------------------12-12----------------------------------12-|
A|-------------------------------------------------------------------------------|
D|-------------------------------------------------------------------------------|

e|-----------------------------------------------------------------------------------------|
B|-----------------------------------------------------------------12-12-12-12-12-12-12-!2-|
G|-9-9-9-9-9-9-9-9-11-11-11-11-11-11-11-11-12-12-12-12-12-12-12-12-------------------------|
D|-----------------------------------------------------------------------------------------|
A|-----------------------------------------------------------------------------------------|
D|-----------------------------------------------------------------------------------------|
 Tremolo Picking----------------------------------------------------------------------------

e|-14-13-12-10-12-13-14-13-12-10-12-13-14-10----------------------10-12-13-14-17bb-|
B|-------------------------------------------12----------------12------------------|
G|----------------------------------------------11----------11---------------------|
D|-------------------------------------------------12----12------------------------|
A|----------------------------------------------------14---------------------------|
D|---------------------------------------------------------------------------------|







************************************
| h   Hammer-on
| p   Pull-off
| t   Tapping
| b   Bend
| s   Slide up
| s   Slide down
| PM  Palm mute

************************************
Suggest correction
Give kudos to tab author, rate the tab!
1 2 3 4 5
comments
print report bad tab
guest
You may want to rate the tab now too:
select rating
Wanna post a correction for this tab? Suggest correction