Oops, an error
Loading. Please wait.

Youth And Whiskey bass

version 1
version 1

Whole song

Interactive

2,954 views 3 this week
no commentswrite comment
1 2 3 4 5
2 more votes to show rating
add to favorites
×
Save as Personal and add changes to this tab that will be seen only by you. Learn more ›
×
You can save this tab as Personal to edit and correct it or add notes. All changes will be seen only by you. Learn more »
launch autoscroll
font size
0
reset
guitar tuner
edit
Autoscroll
slow
fast
+/-
esc
set tempo
stop
Intro
F|-----------------------------------------------------------------|
C|-------------------------------------------------0---0-1-3-1-0-1-|
G|---------------------------------------------------3-------------|
C|-00000-0---------000-000---------00000-0-------------------------|
   1 + 2 + 3 + 4 + 1 + 2 + 3 + 4 + 1 + 2 + 3 + 4 + 1 + 2 + 3 + 4 + 

F|--------------------------------------------------------------------|
C|--------------------------------------------------------------------|
G|--------------------------------------------------------------------|
C|-0-------------------------------10h12---8h10---7h8---5h7---8-7-5-7-|
   1 + 2 + 3 + 4 + 1 + 2 + 3 + 4 + 1  +  2 + 3  + 4 + 1 + 2 + 3 + 4 + 

F|-----------------------------------------------------------------|
C|-------------------------------------------------0---0-1-3-1-0-1-|
G|---------------------------------------------------3-------------|
C|-00000-0---------00000-0---------00000-0-------------------------|
   1 + 2 + 3 + 4 + 1 + 2 + 3 + 4 + 1 + 2 + 3 + 4 + 1 + 2 + 3 + 4 + 

F|--------------------------------------------------------------------|
C|--------------------------------------------------------------------|
G|--------------------------------------------------------------------|
C|-00000-0---------000-000-0-0-0-0-12-12-12-8-8-8-7-7-7-5-5-5-3-0-3-5-|
   1 + 2 + 3 + 4 + 1 + 2 + 3 + 4 + 1  +  2  + 3 + 4 + 1 + 2 + 3 + 4 + 

Verse 0:18
F|------------------------------------------------------------------|
C|o-----------------------------------------------------------------|
G|o-----------------------------------------------------------------|
C|--0---0---0---0--00---0---0---0--00---0---0---0---0---0---0---0--0|
    1 + 2 + 3 + 4 + 1 + 2 + 3 + 4 + 1 + 2 + 3 + 4 + 1 + 2 + 3 + 4 + 

F|------------------------------------------------------------------|
C|-----------------------------------------------------------------o|
G|-----------------------------------------------------------------o|
C|-0---0---0---0---0---0---0---0--00---0---0---0---0---0---0---0----|
   1 + 2 + 3 + 4 + 1 + 2 + 3 + 4 + 1 + 2 + 3 + 4 + 1 + 2 + 3 + 4 + 

F|-------------------------------------------|
C|-------------------------------------------|
G|-------------------------------------------|
C|-8-8-8-8-8-8-8-8-10-10-10-10-10------------|
   1 + 2 + 3 + 4 + 1  +  2  +  3  + 4 + 

0:40 Chorus
F|-----------------------------------------------------------------|
C|-----------------------------------------------------------------|
G|-----------------------------------------------------------------|
C|-0-0-0-0-0-0-0-0-0-0-0-0-0-0-0-2-3-3-3-3-3-3-3-3-3-3-3-3-3-3-3-7-|
   1 + 2 + 3 + 4 + 1 + 2 + 3 + 4 + 1 + 2 + 3 + 4 + 1 + 2 + 3 + 4 + 

F|-----------------------------------------------------------------|
C|-----------------------------------------------------------------|
G|-----------------------------------------------------------------|
C|-8-8-8-8-8-8-8-8-8-8-8-8-8-8-8-8-7-7-7-7-7-7-7-7-5-5-5-5-3---2---|
   1 + 2 + 3 + 4 + 1 + 2 + 3 + 4 + 1 + 2 + 3 + 4 + 1 + 2 + 3 + 4 + 

F|-----------------------------------------------------------------|
C|-----------------------------------------------------------------|
G|-----------------------------------------------------------------|
C|-0-0-0-0-0-0-0-0-0-0-0-0-0-0-0-2-3-3-3-3-3-3-3-3-3-3-3-3-3-3-3-7-|
   1 + 2 + 3 + 4 + 1 + 2 + 3 + 4 + 1 + 2 + 3 + 4 + 1 + 2 + 3 + 4 + 

F|---------------------------------------------------------------------|
C|---------------------------------------------------------------------|
G|---------------------------------------------------------------------|
C|-8-8-8-8-8-8-8-8-8-8-8-8-8-8-8-8-7-7-7-7-7-7-7-7-9-9-9-9-10-10-10-10-|
   1 + 2 + 3 + 4 + 1 + 2 + 3 + 4 + 1 + 2 + 3 + 4 + 1 + 2 + 3  +  4  + 

0:59 Interlude
F|-----------------------------------------------------------------|
C|-----------------------------------------------------------------|
G|---------------------3h5-----------------------------3h5---------|
C|-0---0-0-3---0-0-5---------3h5---0---0-0-3---0-0-5---------3-5-3-|
   1 + 2 + 3 + 4 + 1 + 2 + 3 + 4 + 1 + 2 + 3 + 4 + 1 + 2 + 3 + 4 + 

F|-----------------------------------------------------------------|
C|-----------------------------------------------------------------|
G|---------------------3h5-----------------------------------------|
C|-0---0-0-3---0-0-5---------3h5---0000------------000-000---------|
   1 + 2 + 3 + 4 + 1 + 2 + 3 + 4 + 1 + 2 + 3 + 4 + 1 + 2 + 3 + 4 + 

1:09 Verse
F|-----------------------------------------------------------------|
C|-----------------------------------------------------------------|
G|-----------------------------------------------------------------|
C|-00--00--00--0-0-0---00--00--0-0-0---00--00--0-0-0---00--00--0-0-|
   1 + 2 + 3 + 4 + 1 + 2 + 3 + 4 + 1 + 2 + 3 + 4 + 1 + 2 + 3 + 4 + 

F|---------------------------------------------------------------------|
C|---------------------------------------------------------------------|
G|---------------------------------------------------------------------|
C|-0---00--00--0-0-0---00--00--0-0-0-0-0-0-0-0-0-0-0-0-0-0-10-10-10-10-|
   1 + 2 + 3 + 4 + 1 + 2 + 3 + 4 + 1 + 2 + 3 + 4 + 1 + 2 + 3 + 4 + 

F|-----------------------------------------------------------------|
C|-----------------------------------------------------------------|
G|-----------------------------------------------------------------|
C|-0---00--00--0-0-0---00--00--0-0-0---00--00--0-0-0---00--00--0-0-|
   1 + 2 + 3 + 4 + 1 + 2 + 3 + 4 + 1 + 2 + 3 + 4 + 1 + 2 + 3 + 4 + 

F|-----------------------------------------------------------------|
C|-----------------------------------------------------------------|
G|-----------------------------------------------------------------|
C|-0---00--00--0-0-0---00--00--0-0-0-0-0-0-0-0-0-0-0-0-0-0-0-0-0-0-|
   1 + 2 + 3 + 4 + 1 + 2 + 3 + 4 + 1 + 2 + 3 + 4 + 1 + 2 + 3 + 4 + 

F|---------------------------------|
C|---------------------------------|
G|-----------------------------3---|
C|-r-------------------------------|
   1 + 2 + 3 + 4 + 1 + 2 + 3 + 4 + 

1:30 Chorus
F|-----------------------------------------------------------------|
C|-----------------------------------------------------------------|
G|-----------------------------------------------------------------|
C|-0-0-0-0-0-0-0-0-0-0-0-0-0-0-0-2-3-3-3-3-3-3-3-3-3-3-3-3-3-3-3-7-|
   1 + 2 + 3 + 4 + 1 + 2 + 3 + 4 + 1 + 2 + 3 + 4 + 1 + 2 + 3 + 4 + 

F|-----------------------------------------------------------------|
C|-----------------------------------------------------------------|
G|-----------------------------------------------------------------|
C|-8-8-8-8-8-8-8-8-8-8-8-8-8-8-8-8-7-7-7-7-7-7-7-7-5-5-5-5-3---2---|
   1 + 2 + 3 + 4 + 1 + 2 + 3 + 4 + 1 + 2 + 3 + 4 + 1 + 2 + 3 + 4 + 

F|-----------------------------------------------------------------|
C|-----------------------------------------------------------------|
G|-----------------------------------------------------------------|
C|-0-0-0-0-0-0-0-0-0-0-0-0-0-0-0-2-3-3-3-3-3-3-3-3-3-3-3-3-3-3-3-7-|
   1 + 2 + 3 + 4 + 1 + 2 + 3 + 4 + 1 + 2 + 3 + 4 + 1 + 2 + 3 + 4 + 

F|---------------------------------------------------------------------|
C|---------------------------------------------------------------------|
G|---------------------------------------------------------------------|
C|-8-8-8-8-8-8-8-8-8-8-8-8-8-8-8-8-7-7-7-7-7-7-7-7-9-9-9-9-10-10-10-10-|
   1 + 2 + 3 + 4 + 1 + 2 + 3 + 4 + 1 + 2 + 3 + 4 + 1 + 2 + 3  +  4  + 

1:50 Interlude
F|-----------------------------------------------------------------|
C|-------------------------------------------------0---0-1-3-1-0-1-|
G|---------------------------------------------------3-------------|
C|-00000-0---------000-000---------00000-0-------------------------|
   1 + 2 + 3 + 4 + 1 + 2 + 3 + 4 + 1 + 2 + 3 + 4 + 1 + 2 + 3 + 4 + 

F|--------------------------------------------------------------------|
C|--------------------------------------------------------------------|
G|--------------------------------------------------------------------|
C|-00000-0---------000-000-0-0-0-0-12-12-12-8-8-8-7-7-7-5-5-5-3-0-3-5-|
   1 + 2 + 3 + 4 + 1 + 2 + 3 + 4 + 1  +  2  + 3 + 4 + 1 + 2 + 3 + 4 + 

F|----------------------------------|
C|----------------------------------|
G|----------------------------------|
C|-0-0-0/8---8-7---0-0-0/10---8-7---|
   1 + 2 + 3 + 4 + 1 + 2 +  3 + 4 + 

2:02 Breakdown
F|-----------------------------------------------------------------|
C|-----------------------------------------------------------------|
G|-----------------------------------------------------------------|
C|-0-0-----0-0-----0000----0-0-----0-0-----0-0-----0-0-0-0-0-8-7---|
   1 + 2 + 3 + 4 + 1 + 2 + 3 + 4 + 1 + 2 + 3 + 4 + 1 + 2 + 3 + 4 + 

F|-----------------------------------------------------------------|
C|-----------------------------------------------------------------|
G|-------------------------------------5-5-7-7-8-8-7-7-5-5---------|
C|-0-0-----0-0-----0000----0-0-----8-8---------------------8-8-7-7-|
   1 + 2 + 3 + 4 + 1 + 2 + 3 + 4 + 1 + 2 + 3 + 4 + 1 + 2 + 3 + 4 + 

F|-----------------------------------------------------------------|
C|-----------------------------------------------------------------|
G|-----------------------------------------------------------------|
C|-0-0-0-0-0-0-0-0-0-0-0-0-0-0-0-0-0-0-0-0-0-0-0-0-0-0-0-0-0-0-0-0-|
   1 + 2 + 3 + 4 + 1 + 2 + 3 + 4 + 1 + 2 + 3 + 4 + 1 + 2 + 3 + 4 + 

F|-----------------------------------------------------------------|
C|-----------------------------------------------------------------|
G|-------------------------------------5-5-7-7-8-8-7-7-5-5---------|
C|-0-0-0-0-0-0-0-0-0-0-0-0-0-0-0-0-8-8---------------------8-8-7-7-|
   1 + 2 + 3 + 4 + 1 + 2 + 3 + 4 + 1 + 2 + 3 + 4 + 1 + 2 + 3 + 4 + 

2:21
F|--------------------------------------------------------------------|
C|o------------------------------------------------------------------o|
G|o------------------------------------------------------------------o|
C|--0-0-----0-0-----0000----0-0-----0-0-----0-0-----0-0-3---0-10-8----|
    1 + 2 + 3 + 4 + 1 + 2 + 3 + 4 + 1 + 2 + 3 + 4 + 1 + 2 + 3 +  4 + 

F|-----------------------------------------------------------------|
C|-----------------------------------------------------------------|
G|-----------------------------------------------------------------|
C|-0-------------------------------1-------------------------------|
   1 + 2 + 3 + 4 + 1 + 2 + 3 + 4 + 1 + 2 + 3 + 4 + 1 + 2 + 3 + 4 + 

Solo
2:35
F|-----------------------------------------------------------------|
C|-----------------------------------------------------------------|
G|-----------------------------------------------------------------|
C|-0-0-0-0-0-0-0-0-0-0-0-0-0-0-0-0-3-3-3-3-3-3-3-3-3-3-3-3-3-3-3-3-|
   1 + 2 + 3 + 4 + 1 + 2 + 3 + 4 + 1 + 2 + 3 + 4 + 1 + 2 + 3 + 4 + 

F|---------------------------------------------------------------------|
C|---------------------------------------------------------------------|
G|---------------------------------------------------------------------|
C|-8-8-8-8-8-8-8-8-8-8-8-8-8-8-8-8-5-5-5-5-5-5-5-5-9-9-9-9-10-10-10-10-|
   1 + 2 + 3 + 4 + 1 + 2 + 3 + 4 + 1 + 2 + 3 + 4 + 1 + 2 + 3  +  4  + 

F|-----------------------------------------------------------------|
C|-----------------------------------------------------------------|
G|-----------------------------------------------------------------|
C|-000-0-0-000-0-0-000-0-0-0-0-0-0-333-3-3-333-3-3-333-3-3-3-3-3-3-|
   1 + 2 + 3 + 4 + 1 + 2 + 3 + 4 + 1 + 2 + 3 + 4 + 1 + 2 + 3 + 4 + 

F|---------------------------------------------------------------------|
C|---------------------------------------------------------------------|
G|---------------------------------------------------------------------|
C|-8-8-8-8-8-8-8-8-8-8-8-8-8-8-8-8-5-5-5-5-5-5-5-5-9-9-9-9-10-10-10-10-|
   1 + 2 + 3 + 4 + 1 + 2 + 3 + 4 + 1 + 2 + 3 + 4 + 1 + 2 + 3  +  4  + 

Chorus 2:57
F|-----------------------------------------------------------------|
C|-----------------------------------------------------------------|
G|-----------------------------------------------------------------|
C|---------------------------------3-3-3-3-3-3-3-3-3-3-3-3-3-3-3-7-|
   1 + 2 + 3 + 4 + 1 + 2 + 3 + 4 + 1 + 2 + 3 + 4 + 1 + 2 + 3 + 4 + 

F|-----------------------------------------------------------------|
C|-----------------------------------------------------------------|
G|-----------------------------------------------------------------|
C|-8-8-8-8-8-8-8-8-8-8-8-8-8-8-8-8-7-7-7-7-7-7-7-7-5-5-5-5-3---2---|
   1 + 2 + 3 + 4 + 1 + 2 + 3 + 4 + 1 + 2 + 3 + 4 + 1 + 2 + 3 + 4 + 

F|-----------------------------------------------------------------|
C|-----------------------------------------------------------------|
G|-----------------------------------------------------------------|
C|-0-0-0-0-0-0-0-0-0-0-0-0-0-0-0-2-3-3-3-3-3-3-3-3-3-3-3-3-3-3-3-7-|
   1 + 2 + 3 + 4 + 1 + 2 + 3 + 4 + 1 + 2 + 3 + 4 + 1 + 2 + 3 + 4 + 

F|---------------------------------------------------------------------|
C|---------------------------------------------------------------------|
G|---------------------------------------------------------------------|
C|-8-8-8-8-8-8-8-8-8-8-8-8-8-8-8-8-7-7-7-7-7-7-7-7-9-9-9-9-10-10-10-10-|
   1 + 2 + 3 + 4 + 1 + 2 + 3 + 4 + 1 + 2 + 3 + 4 + 1 + 2 + 3  +  4  + 

Outro 3:14
F|-----------------------------------------------------------------|
C|-----------------------------------------------------------------|
G|-----------------------------------------------------------7-3---|
C|-0-0-----0-0-----0000----0-0-----0-0-----0-0-----0-0-0-0-0-------|
   1 + 2 + 3 + 4 + 1 + 2 + 3 + 4 + 1 + 2 + 3 + 4 + 1 + 2 + 3 + 4 + 

F|-----------------------------------------------------------------|
C|-------------------------------------------------8-7-5-----------|
G|-------------------------------------------------------8-6-5---6-|
C|-0-0-0-0-0-0-0-0-0-0-0-0-0-0-0-0-0-0-0-0-0-0-0-0-------------8---|
   1 + 2 + 3 + 4 + 1 + 2 + 3 + 4 + 1 + 2 + 3 + 4 + 1 + 2 + 3 + 4 + 

F|-----------------------------------------------------------------|
C|-----------------------------------------------------------------|
G|-------------------------0-1-0-----------------------------------|
C|-1-----------------1-1-1-------1-0-------------------------------|
   1 + 2 + 3 + 4 + 1 + 2 + 3 + 4 + 1 + 2 + 3 + 4 + 1 + 2 + 3 + 4 + 
Tabbed by Dave Vucko

Intro
F#|-------------------------------------------------------------|
C#|-------------------------------------------------------------|
G#|--------------------------42457545---------------------------|
C#|-0000-00-000-000-0000-00-----------0~-10h11-8h9-6h7-4h5-7545-|

|------------------------------------------------------------------------|
|------------------------------------------------------------------------|
|--------------------------42457545--------------------------------------|
|-0000-00-0000-00-0000-00-----------0000-00-0000-00-0/1111\99\77\55\3035-|

Verse
0:18
|------------------------------------------------------------------------|
|------------------------------------------------------------------------|
|------------------------------------------------------------------------|
|-0-000-000-03-03h5-0-000-00-77-6-65-0-000-003-03-03h5-0-000-00-77665566-|

|---------------------------------------------------------------------------------------|
|---------------------------------------------------------------------------------------|
|---------------------------------------------------------------------------------------|
|-0-000-000-03-03h5-0-000-00-77-6-65-0-000-003-03-03h5-0-000-00-77665566-7(x8)-99999910-|

Chorus
0:40
|-----------------------------------------------------------------------|
|-----------------------------------------------------------------------|
|-----------------------------------------------------------------------|
|-0(x16)-2(x16)-7(x16)-5(x8)-444432-0(x16)-2(x16)-7(x16)-5(x8)-88889999-|

0:59
|----------------------------------------------------------------|
|----------------------------------------------------------------|
|----------------------------------------------------------------|
|-0-002-004-05-06h7-0-002-004-8p7-5h7-0-002-004-05-6h7-0000-0000-|

Verse
1:09
|------------------------------------------------------------------------|
|------------------------------------------------------------------------|
|------------------------------------------------------------------------|
|-0-000-000-03-03h5-0-000-00-77-6-65-0-000-003-03-03h5-0-000-00-77665566-|

|---------------------------------------------------------------------------------------|
|---------------------------------------------------------------------------------------|
|---------------------------------------------------------------------------------------|
|-0-000-000-03-03h5-0-000-00-77-6-65-0-000-003-03-03h5-0-000-00-77665566-7(x8)-99999910-|

Chorus
1:30
|-----------------------------------------------------------------------|
|-----------------------------------------------------------------------|
|-----------------------------------------------------------------------|
|-0(x16)-2(x16)-7(x16)-5(x8)-444432-0(x16)-2(x16)-7(x16)-5(x8)-88889999-|

Breakdown
1:50
|----------------------------------------------------------------------------|
|----------------------------------------------------------------------------|
|----------------------------------------------------------------------------|
|-0000-0000-0000-00356535-0000-0000-0/1111\99\77\55\3035-000-/5-56-000-/5-56-|

2:01
|--------------------------------------------------------------|
|o------------------------------------------------------------o|
|o------------------------------------------------------------o|
|--00-00-0000-00-00-00-0023565-00-00-0000-00-0033557799775577--|

2:21
|---------------------------------|---------|
|o-------------------------------o|---------|
|o-------------------------------o|---------|
|--00-00-0000-00-00-00-002~-065~--|-0~--1~--|

Solo
2:35
|-------------------------------------|
|-------------------------------------|
|-------------------------------------|
|-0(x16)-2(x16)-7(x16)-4(x8)-88889999-|

|-----------------------------------------------------------|
|-----------------------------------------------------------|
|-----------------------------------------------------------|
|-00-00-00-000-0000-22-22-22-222-2222-7(x16)-4(x8)-88889999-|

Chorus
2:57
|-------------------------------------------------------------------|
|-------------------------------------------------------------------|
|-------------------------------------------------------------------|
|----2(x16)-7(x16)-5(x8)-444432-0(x16)-2(x16)-7(x16)-5(x8)-88889999-|

Outro
3:14
|------------------------------------------------------|
|------------------------------------------------------|
|------------------------------------------------------|
|-00-00-0000-00-00-00-0023565-0(x24)-876565430-3365430-|
Tabbed by Dave Vucko
Suggest correction
Creating personal tab
Creating personal tab
You can edit any tab online and save it as your Personal.

You can edit, replace or remove any tab part or add personal notes – all changes will be seen only by you.

Personal tabs can be accessed anytime from any device, even offline.
Learn more »
Give kudos to tab author, rate the tab!
1 2 3 4 5
comments
print report bad tab
guest
You may want to rate the tab now too:
select rating
Wanna post a correction for this tab? Suggest correction